Dust

01234567891011121314151617181920212223
E
B
G
D
A
E
B
0 1 2 3 4 5 6 7 8 9 10 11 12 13 14 15 16 17 18 19 20 21 22 23
(/) Slide Up  (\) Slide Down  (h) Hammer On  (p) Pull Off  (b) Bend (r) Release (v) Vibrato

Stave 1:

E|-----------------------------
B|-----------------------------
G|-----5--3--5-----5--3-----3--
D|--------3-----------------3--
A|--3--------------------5-----
E|-----------------------------

Stave 2:

E|--------------------
B|--------------------
G|--5--3--3--------5--
D|--------5--5--5-----
A|-----------3--5-----
E|--------------------

							http://www.guitartabcreator.com
Chords

Instruments
{"strings":[[[".",".",".",".","_",".",".",".","."],[".",".",".",".","_",".",".",".","."],[".",5,3,5,"_",5,3,".",3],[".",".",3,".","_",".",".",".",3],[3,".",".",".","_",".",".",5,"."],[".",".",".",".","_",".",".",".","."]],[[".",".",".",".",".","."],[".",".",".",".",".","."],[5,3,3,".",".",5],[".",".",5,5,5,"."],[".",".",".",3,5,"."],[".",".",".",".",".","."]]],"numberofstrings":6,"notes":["E","B","G","D","A","E","B"],"capo":0,"stringnotes":["E4","B3","G3","D3","A2","E2"],"comments":["Stave 1:","Stave 2:"],"timing":[["W","W","W","W",null,"W","W","W","W"],["W","W","W","W","W","W"]],"timingvisible":false,"tabcounter":6,"stave":1,"totalstaves":2,"instrument":"6guitar","selectedtuning":"6_standard","version":"13"}

Member for

2 years 6 months
Submitted by Totite007 on Wed, 2021-01-27 09:05