ditty

01234567891011121314151617181920212223
E
B
G
D
A
E
B
0 1 2 3 4 5 6 7 8 9 10 11 12 13 14 15 16 17 18 19 20 21 22 23
(/) Slide Up  (\) Slide Down  (h) Hammer On  (p) Pull Off  (b) Bend (r) Release (v) Vibrato

Stave 1:

E|-----------------------------------------
B|-----------------------------------------
G|-----------------------------------------
D|--------5--4--2--------1-----1--------4--
A|-----2-----------1--2-----2-----2-----5--
E|--2--------------------------------5--7--

Stave 2:

E|--------------------------
B|--------------------------
G|--------------------------
D|--2--2--5--0-----2--0--2--
A|--3--2--5--0-----3--0--2--
E|-----2--5--0--------0--2--

Stave 3:

E|--------------------------------------------------
B|--------------------------------------------------
G|--------------------------------------------------
D|--------------------------------5-----------------
A|-----0--2--3-----3--5--3-----3-----7--3--2--3--0--
E|--0-----------3-----------3-----------------------

Stave 4:

E|--------------------------------------------
B|--------------------------------------------
G|--------------------------------------------
D|--2--2--3--2--2--2--3--2--2--2--3--2--5--3--
A|--2--2--------2--2--------2--2--------5--3--
E|--2--2--------2--2--------2--2--------5--3--

							http://www.guitartabcreator.com
Chords

Instruments
{"strings":[[[".",".",".",".",".",".",".",".",".",".",".",".","."],[".",".",".",".",".",".",".",".",".",".",".",".","."],[".",".",".",".",".",".",".",".",".",".",".",".","."],[".",".",5,4,2,".",".",1,".",1,".",".",4],[".",2,".",".",".",1,2,".",2,".",2,".",5],[2,".",".",".",".",".",".",".",".",".",".",5,7]],[[".",".",".",".","_",".",".","."],[".",".",".",".","_",".",".","."],[".",".",".",".","_",".",".","."],[2,2,5,0,"_",2,0,2],[3,2,5,0,"_",3,0,2],[".",2,5,0,"_",".",0,2]],[[".",".",".",".",".",".",".",".","_","_","_","_","_","_","_","_"],[".",".",".",".",".",".",".",".","_","_","_","_","_","_","_","_"],[".",".",".",".",".",".",".",".","_","_","_","_","_","_","_","_"],[".",".",".",".",".",".",".",".","_","_",5,"_","_","_","_","_"],[".",0,2,3,".",3,5,3,"_",3,"_",7,3,2,3,0],[0,".",".",".",3,".",".","_",3,"_","_","_","_","_","_","_"]],[[".",".",".",".",".",".",".",".",".",".",".",".",".","."],[".",".",".",".",".",".",".",".",".",".",".",".",".","."],[".",".",".",".",".",".",".",".",".",".",".",".",".","."],[2,2,3,2,2,2,3,2,2,2,3,2,5,3],[2,2,".",".",2,2,".",".",2,2,".",".",5,3],[2,2,".",".",2,2,".",".",2,2,".",".",5,3]]],"numberofstrings":6,"notes":["E","B","G","D","A","E","B"],"capo":0,"stringnotes":["E4","B3","G3","D3","A2","E2"],"comments":["Stave 1:","Stave 2:","Stave 3:","Stave 4:"],"timing":[["W","W","W","W","W","W","W","W","W","W","W","W","W"],["W","W","W","W","W","W","W","W"],["W","W","W","W","W","W","W","W","W","W","W","W","W","W","W","W","W"],["W","W","W","W","W","W","W","W","W","W","W","W","W","W"]],"timingvisible":false,"tabcounter":13,"stave":3,"totalstaves":4,"instrument":"6guitar","selectedtuning":"6_standard","version":"13"}

Member for

2 years 6 months
Submitted by Totite007 on Wed, 2022-05-18 07:58