Coming Together

01234567891011121314151617181920212223
E
B
G
D
A
E
B
0 1 2 3 4 5 6 7 8 9 10 11 12 13 14 15 16 17 18 19 20 21 22 23
(/) Slide Up  (\) Slide Down  (h) Hammer On  (p) Pull Off  (b) Bend (r) Release (v) Vibrato

Stave 1:

E|-----|--|-----|--|-----|--|--------------|--|-----|--|-----|--|-----
B|-----|--|-----|--|-----|--|--------------|--|-----|--|-----|--|-----
G|-----|--|-----|--|-----|--|--4--4--------|--|-----|--|-----|--|-----
D|-----|--|-----|--|-----|--|--4--4--------|--|-----|--|-----|--|-----
A|--2--|--|--2--|--|--2--|--|--2--2-----2--|--|--2--|--|--2--|--|--1--
E|--0--|--|--0--|--|--0--|--|-----------0--|--|--0--|--|--0--|--|--0--

Stave 2:

E|-----------------------------
B|-----------------------------
G|--4--4--6--4-----2--2-----2--
D|--4--4--6--4-----2--2--2--2--
A|--2--2--4--2-----0--0--2--0--
E|-----------------------0-----

							http://www.guitartabcreator.com
Chords

Instruments
{"strings":[[[".","|","|",".","|","|",".","|","|",".",".","_",".","|","|",".","|","|",".","|","|","."],[".","|","|",".","|","|",".","|","|",".",".","_",".","|","|",".","|","|",".","|","|","."],[".","|","|",".","|","|",".","|","|",4,4,"_",".","|","|",".","|","|",".","|","|","."],[".","|","|",".","|","|",".","|","|",4,4,"_",".","|","|",".","|","|",".","|","|","."],[2,"|","|",2,"|","|",2,"|","|",2,2,"_",2,"|","|",2,"|","|",2,"|","|",1],[0,"|","|",0,"|","|",0,"|","|",".",".","_",0,"|","|",0,"|","|",0,"|","|",0]],[[".",".",".",".","_",".",".",".","."],[".",".",".",".","_",".",".",".","."],[4,4,6,4,"_",2,2,".",2],[4,4,6,4,"_",2,2,2,2],[2,2,4,2,"_",0,0,2,0],[".",".",".",".","_",".",".",0,"."]]],"numberofstrings":6,"notes":["E","B","G","D","A","E","B"],"capo":0,"stringnotes":["E4","B3","G3","D3","A2","E2"],"comments":["Stave 1:","Stave 2:"],"timing":[["W","W",null,"W",null,null,"W",null,null,"W","W",null,"W",null,null,"W",null,null,"W",null,null,"W"],["W","W","W","W",null,"W","W","W","W"]],"timingvisible":false,"tabcounter":8,"stave":1,"totalstaves":2,"instrument":"6guitar","selectedtuning":"6_standard","version":"13"}

Member for

2 years 6 months
Submitted by Totite007 on Mon, 2020-08-10 17:20