yarichin b club outro (touch you)

Chords

01234567891011121314151617181920212223
E
B
G
D
A
E
B
0 1 2 3 4 5 6 7 8 9 10 11 12 13 14 15 16 17 18 19 20 21 22 23
(/) Slide Up  (\) Slide Down  (h) Hammer On  (p) Pull Off  (b) Bend (r) Release (v) Vibrato

Stave 1:

E|--------------|-----------------------|--------------------|--2--0--0--------------|--------------|-----------------------|--
B|--4--4--4--4--|--4--2--0--0--2--3--4--|--2--0-----0--0--0--|-----------4--2--0-----|--4--4--4--4--|--4--2--0--0--2--3--4--|--
G|--------------|-----------------------|--------3-----------|-----------------------|--------------|-----------------------|--
D|--------------|-----------------------|--------------------|-----------------------|--------------|-----------------------|--
A|--------------|-----------------------|--------------------|-----------------------|--------------|-----------------------|--
E|--------------|-----------------------|--------------------|-----------------------|--------------|-----------------------|--

Stave 2:

E|-----------------|--------------------|-----------------------|--------------------|-----------------------|-----------------|--
B|--2--0-----0-----|--2--4--2--4--2--0--|-----------------0-----|--------------2--0--|--------------0--0--2--|--4--3--2--0-----|--
G|--------3--------|--------------------|--1--1-----1--1-----1--|--1-----1--1--------|--1-----1--1-----------|--------------0--|--
D|--------------4--|--------------------|--------4--------------|-----4--------------|-----4-----------------|-----------------|--
A|-----------------|--------------------|-----------------------|--------------------|-----------------------|-----------------|--
E|-----------------|--------------------|-----------------------|--------------------|-----------------------|-----------------|--

Stave 3:

E|-----------------------|--------------------|-----------------------------------2--4--2--4--7--|--6--5--4--7--|--
B|-----------------0-----|--------------2--0--|-----------0--2--0--2--3--4--2--4-----------------|--------------|--
G|--1--1-----1--1-----1--|--1-----1--1--------|--1-----1-----------------------------------------|--------------|--
D|--------4--------------|-----4--------------|-----4--------------------------------------------|--------------|--
A|-----------------------|--------------------|--------------------------------------------------|--------------|--
E|-----------------------|--------------------|--------------------------------------------------|--------------|--

Stave 4:

E|--------------------|--------------------|--------------
B|--0--0--0--0--0--0--|--------------------|--------------
G|--------------------|--1--1--1-----0--1--|--1-----1-----
D|--------------------|-----------4--------|-----4-----4--
A|--------------------|--------------------|--------------
E|--------------------|--------------------|--------------

							http://www.guitartabcreator.com
Instruments
{"strings":[[[".",".",".",".","|",".",".",".",".",".",".",".","|",".",".",".",".",".",".","|",2,0,0,".",".",".","_","|",".",".",".",".","|",".",".",".",".",".",".",".","|"],[4,4,4,4,"|",4,2,0,0,2,3,4,"|",2,0,".",0,0,0,"|",".",".",".",4,2,0,"_","|",4,4,4,4,"|",4,2,0,0,2,3,4,"|"],[".",".",".",".","|",".",".",".",".",".",".",".","|",".",".",3,".",".",".","|",".",".",".",".",".",".","_","|",".",".",".",".","|",".",".",".",".",".",".",".","|"],[".",".",".",".","|",".",".",".",".",".",".",".","|",".",".",".",".",".",".","|",".",".",".",".",".",".","_","|",".",".",".",".","|",".",".",".",".",".",".",".","|"],[".",".",".",".","|",".",".",".",".",".",".",".","|",".",".",".",".",".",".","|",".",".",".",".",".",".","_","|",".",".",".",".","|",".",".",".",".",".",".",".","|"],[".",".",".",".","|",".",".",".",".",".",".",".","|",".",".",".",".",".",".","|",".",".",".",".",".",".","_","|",".",".",".",".","|",".",".",".",".",".",".",".","|"]],[[".",".",".",".",".","|",".",".",".",".",".",".","|",".",".",".",".",".",".",".","|",".",".",".",".",".",".","|",".",".",".",".",".",".",".","|",".",".",".",".",".","|"],[2,0,".",0,".","|",2,4,2,4,2,0,"|",".",".",".",".",".",0,".","|",".",".",".",".",2,0,"|",".",".",".",".",0,0,2,"|",4,3,2,0,".","|"],[".",".",3,".",".","|",".",".",".",".",".",".","|",1,1,".",1,1,".",1,"|",1,".",1,1,".",".","|",1,".",1,1,".",".",".","|",".",".",".",".",0,"|"],[".",".",".",".",4,"|",".",".",".",".",".",".","|",".",".",4,".",".",".",".","|",".",4,".",".",".",".","|",".",4,".",".",".",".",".","|",".",".",".",".",".","|"],[".",".",".",".",".","|",".",".",".",".",".",".","|",".",".",".",".",".",".",".","|",".",".",".",".",".",".","|",".",".",".",".",".",".",".","|",".",".",".",".",".","|"],[".",".",".",".",".","|",".",".",".",".",".",".","|",".",".",".",".",".",".",".","|",".",".",".",".",".",".","|",".",".",".",".",".",".",".","|",".",".",".",".",".","|"]],[[".",".",".",".",".",".",".","|",".",".",".",".",".",".","|",".",".",".",".",".",".",".",".",".",".",".",2,4,2,4,7,"|",6,5,4,7,"|"],[".",".",".",".",".",0,".","|",".",".",".",".",2,0,"|",".",".",".",0,2,0,2,3,4,2,4,".",".",".",".",".","|",".",".",".",".","|"],[1,1,".",1,1,".",1,"|",1,".",1,1,".",".","|",1,".",1,".",".",".",".",".",".",".",".",".",".",".",".",".","|",".",".",".",".","|"],[".",".",4,".",".",".",".","|",".",4,".",".",".",".","|",".",4,".",".",".",".",".",".",".",".",".",".",".",".",".",".","|",".",".",".",".","|"],[".",".",".",".",".",".",".","|",".",".",".",".",".",".","|",".",".",".",".",".",".",".",".",".",".",".",".",".",".",".",".","|",".",".",".",".","|"],[".",".",".",".",".",".",".","|",".",".",".",".",".",".","|",".",".",".",".",".",".",".",".",".",".",".",".",".",".",".",".","|",".",".",".",".","|"]],[[".",".",".",".",".",".","|",".",".",".",".",".",".","|",".",".",".","."],[0,0,0,0,0,0,"|",".",".",".",".",".",".","|",".",".",".","."],[".",".",".",".",".",".","|",1,1,1,".",0,1,"|",1,".",1,"."],[".",".",".",".",".",".","|",".",".",".",4,".",".","|",".",4,".",4],[".",".",".",".",".",".","|",".",".",".",".",".",".","|",".",".",".","."],[".",".",".",".",".",".","|",".",".",".",".",".",".","|",".",".",".","."]]],"numberofstrings":6,"notes":["E","B","G","D","A","E","B"],"capo":0,"stringnotes":["E4","B3","G3","D3","A2","E2"],"comments":["Stave 1:","Stave 2:","Stave 3:","Stave 4:"],"timing":[["W","W","W","W",null,"W","W","W","W","W","W","W",null,"W","W","W","W","W","W",null,"W","W","W","W","W","W",null,null,"W","W","W","W",null,"W","W","W","W","W","W","W"],["W","W","W","W","W","W","W","W","W","W","W","W",null,"W","W","W","W","W","W","W",null,"W","W","W","W","W","W",null,"W","W","W","W","W","W","W",null,"W","W","W","W","W"],["W","W","W","W","W","W","W",null,"W","W","W","W","W","W",null,"W","W","W","W","W","W","W","W","W","W","W","W","W","W","W","W",null,"W","W","W","W",null,"W","W","W","W","W","W"],["W","W","W","W","W","W",null,"W","W","W","W","W","W",null,"W","W","W","W"]],"timingvisible":false,"tabcounter":18,"stave":3,"totalstaves":4,"instrument":"6guitar","selectedtuning":"6_standard","version":"13"}

Member for

5 days 23 hours
Submitted by toorumilk on Sun, 2021-01-10 11:23