Sound will begin in 5 seconds

Mothball - Evil Never Dies

01234567891011121314151617181920212223
E
B
G
D
A
E
B
0 1 2 3 4 5 6 7 8 9 10 11 12 13 14 15 16 17 18 19 20 21 22 23
Song Science #1: How Pros Use 6 Chords to Write Hit Songs
(/) Slide Up  (\) Slide Down  (h) Hammer On  (p) Pull Off  (b) Bend (r) Release (v) Vibrato

Stave 1:

E|---------------------------------------------------------
B|---------------------------------------------------------
G|---------------------------------------------------------
D|-----5---------------------------------------------------
A|-----3--------------------8-----7-----8-----------12-----
E|--------------------------------------------7-----10-----

Stave 2:

E|--------------------------------------------------------------------------
B|--------------------------------------------------------------------------
G|--------------------------------------------------------------------------
D|-----5-----5-----5-----5-----10-----9-----10-------------------------------
A|-----3-----3-----3-----3-----8------7-----8------9-----9-----12-----12-----
E|------------------------------------------------7-----7-----10-----10-----

Stave 3:

E|-----------------------------------------------------
B|-----------------------------------------------------
G|-----------------------------------------------------
D|-----9-----9------------------------------------------
A|-----7-----7-----5-----7-----7-----10-----9-----9-----
E|----------------3-----5-----5-----8------7-----7-----

Stave 4:

E|--------------------------------------------------
B|--------------------------------------------------
G|--------------------------------------------------
D|--------------------------------------------------
A|-----10-----8-----7-------------------------------
E|------------------------10-----8-----7-----10-----

Stave 5:

E|------------------------------------------------------------------------------------
B|------------------------------------------------------------------------------------
G|------------------------------------------------------------------------------------
D|-----9-----9-----9-----9-----12-----12-----12-----12---------------------------------
A|-----7-----7-----7-----7-----10-----10-----10-----10-----12-----12-----12-----12-----
E|--------------------------------------------------------10-----10-----10-----10-----

Stave 6:

E|------------------------------------------
B|------------------------------------------
G|------------------------------------------
D|------------------------------------------
A|------------------------------7-----------
E|----------12-----10-----8-----------7-----

Stave 7:

E|---------------------------------------------------------------------
B|---------------------------------------------------------------------
G|---------------------------------------------------------------------
D|-----9----------------------------------------------------------------
A|-----7---------------7-----8-----------------------12-----5-----7-----
E|--------------------------------7-----8-----7-----10-----3-----5-----

http://www.guitartabcreator.com
Guitar Tab Creator is intended to store guitar tab created through the tool. It currently does not support in-line text editing. Any text you place in here will be lost. If you need to comment on your tab, please use the "Tab Notes" section located below.