Sound will begin in 5 seconds

Mothball - Beast Within

01234567891011121314151617181920212223
E
B
G
D
A
E
B
0 1 2 3 4 5 6 7 8 9 10 11 12 13 14 15 16 17 18 19 20 21 22 23
Song Science #1: How Pros Use 6 Chords to Write Hit Songs
(/) Slide Up  (\) Slide Down  (h) Hammer On  (p) Pull Off  (b) Bend (r) Release (v) Vibrato

Stave 1:

E|-------------------------------------------
B|-------------------------------------------
G|-------------------------------------------
D|--------9----7----9---------9----7----9----
A|----2----7----5----7----2----7----5----7----
E|----0-------------------0-------------------

Stave 2:

E|-------------------------------------------
B|-------------------------------------------
G|-------------------------------------------
D|--------9----7----9------------------------
A|----2----7----5----7----9----9----9----9----
E|----0-------------------7----7----7----7----

Stave 3:

E|---------------------------------
B|---------------------------------
G|---------------------------------
D|---------------------------------
A|----2----2----2----2----4----5----
E|----0----0----0----0----2----3----

Stave 4:

E|---------------------------------------------------------------
B|---------------------------------------------------------------
G|---------------------------------------------------------------
D|----4----4----4-------------------4----4----4-------------------
A|----2----2----2----4----5----4----2----2----2----4----5----4----
E|---------------------------------------------------------------

Stave 5:

E|-----------------------------------------------------
B|-----------------------------------------------------
G|-----------------------------------------------------
D|--------------------------------------4----4----4----
A|--------5----5----5----4----5----4----2----2----2----
E|--------3----3----3----------------------------------

Stave 6:

E|------------------------------------------------
B|------------------------------------------------
G|------------------------------------------------
D|-------------9----7----9---------9----7----9----
A|--------2----7----5----7----2----7----5----7----
E|--------0-------------------0-------------------

Stave 7:

E|-------------------------------------------
B|-------------------------------------------
G|-------------------------------------------
D|-------------------------------------------
A|--------5----5----5----9----9----7----7----
E|--------3----3----3----7----7----5----5----

Stave 8:

E|-------------------------------------------------------------------------
B|-------------------------------------------------------------------------
G|-------------------------------------------------------------------------
D|-------------------------------------------------------------------------
A|-------------2----0---------------------------------------2----0----5----
E|--------0--------------3----0----2----0----0----3----0-------------------

Stave 9:

E|----------------------------------------------------------------------------
B|----------------------------------------------------------------------------
G|----------------------------------------------------------------------------
D|--------------------------------------9----10-------------------------------
A|--------2----2----4----5----2----2----7----8-----9----10----9----10----2----
E|--------0----0----2----3----0----0---------------7----8-----7----8-----0----

Stave 10:

E|--------------------------------------------------------
B|--------------------------------------------------------
G|--------------------------------------------------------
D|--------------------------------------------------------
A|--------------------------------------------------------
E|--------7----7----10----7----7----10----7----7----10----

Stave 11:

E|----------------------------------------------------------
B|----------------------------------------------------------
G|----------------------------------------------------------
D|----------------------------------------------------------
A|-----------------------------------------------------3----
E|--------2----2----5----2----2----5----2----2----5----1----

Stave 12:

E|--------------------------------------------------------
B|--------------------------------------------------------
G|--------------------------------------------------------
D|--------------------------------------------------------
A|--------------------------------------------------------
E|--------7----7----10----7----7----10----7----7----10----

Stave 13:

E|----------------------------------------------------------
B|----------------------------------------------------------
G|----------------------------------------------------------
D|----------------------------------------------------------
A|-----------------------------------------------------7----
E|--------2----2----5----2----2----5----2----2----5----5----

http://www.guitartabcreator.com
Guitar Tab Creator is intended to store guitar tab created through the tool. It currently does not support in-line text editing. Any text you place in here will be lost. If you need to comment on your tab, please use the "Tab Notes" section located below.