Sound will begin in 5 seconds

Riff 1

01234567891011121314151617181920212223
E
B
G
D
A
E
B
0 1 2 3 4 5 6 7 8 9 10 11 12 13 14 15 16 17 18 19 20 21 22 23
Song Science #1: How Pros Use 6 Chords to Write Hit Songs
(/) Slide Up  (\) Slide Down  (h) Hammer On  (p) Pull Off  (b) Bend (r) Release (v) Vibrato

Stave 1:

Db|--------------------------------------------13----------------------------------------------13------------
Ab|----------------------------17------15--17------15----------------------------------17----------15--------
E |---------14------17-------------17-------------------------------14------17-------------17----------------
B |-----15------15------15--------------------------------------15------15------15---------------------------
Gb|----------------------------------------------------------------------------------------------------------
B |--0----------------------0--------------------------0--0--0----------------------0------------------0--8--

Stave 2:

Db|-----------------8---------8\12--10--12\15--13--17--13-----------------------8---------8\12--10--12\15--
Ab|---------10----------------------------------------------------------10---------------------------------
E |-----10------10-----10-------------------------------------------10------10-----10----------------------
B |--------------------------------------------------------------------------------------------------------
Gb|--------------------------------------------------------------------------------------------------------
B |--8---------------------8-------------------------------0--8--8---------------------8-------------------

Stave 3:

Db|--13--17--13--
Ab|--------------
E |--------------
B |--------------
Gb|--------------
B |--------------

http://www.guitartabcreator.com
Guitar Tab Creator is intended to store guitar tab created through the tool. It currently does not support in-line text editing. Any text you place in here will be lost. If you need to comment on your tab, please use the "Tab Notes" section located below.