少女フラクタル / 不可測的メトロポリス Guitar solo

01234567891011121314151617181920212223
E
B
G
D
A
E
B
0 1 2 3 4 5 6 7 8 9 10 11 12 13 14 15 16 17 18 19 20 21 22 23
(/) Slide Up  (\) Slide Down  (h) Hammer On  (p) Pull Off  (b) Bend (r) Release (v) Vibrato

Stave 1:

E|--21--19--17--16--17--19--20--|---------------|-----------------------------------------------------
B|------------------------------|--21--19--17v--|--19--17--19--17--16--14----------------------14-----
G|------------------------------|---------------|--------------------------13--16--13--11-------------
D|------------------------------|---------------|------------------------------------------14---------
A|------------------------------|---------------|-----------------------------------------------------
E|------------------------------|---------------|-----------------------------------------------------

Stave 2:

E|--------------------------------------------------
B|--------------14----------12--14--------------14--
G|----------11------11--13----------13--11----------
D|--11--13----------------------------------14------
A|--------------------------------------------------
E|--------------------------------------------------

							http://www.guitartabcreator.com
Chords

Instruments
{"strings":[[[21,19,17,16,17,19,20,"|",".",".",".",".","|",".",".",".",".",".",".",".",".",".",".",".",".","."],[".",".",".",".",".",".",".","|",21,19,17,"v","|",19,17,19,17,16,14,".",".",".",".",".",14,"."],[".",".",".",".",".",".",".","|",".",".",".",".","|",".",".",".",".",".",".",13,16,13,11,".",".","."],[".",".",".",".",".",".",".","|",".",".",".",".","|",".",".",".",".",".",".",".",".",".",".",14,".","."],[".",".",".",".",".",".",".","|",".",".",".",".","|",".",".",".",".",".",".",".",".",".",".",".",".","."],[".",".",".",".",".",".",".","|",".",".",".",".","|",".",".",".",".",".",".",".",".",".",".",".",".","."]],[[".",".",".",".",".",".",".",".",".",".",".","."],[".",".",".",14,".",".",12,14,".",".",".",14],[".",".",11,".",11,13,".",".",13,11,".","."],[11,13,".",".",".",".",".",".",".",".",14,"."],[".",".",".",".",".",".",".",".",".",".",".","."],[".",".",".",".",".",".",".",".",".",".",".","."]]],"numberofstrings":6,"notes":["E","B","G","D","A","E","B"],"capo":0,"stringnotes":["E4","B3","G3","D3","A2","E2"],"comments":["Stave 1:","Stave 2:"],"timing":[["W","W","W","W","W","W","W",null,"W","W","W",null,null,"W","W","W","W","W","W","W","W","W","W","W","W"],["W","W","W","W","W","W","W","W","W","W","W","W"]],"timingvisible":false,"tabcounter":12,"stave":1,"totalstaves":2,"instrument":"6guitar","selectedtuning":"6_standard","version":"13"}

Member for

3 months 3 weeks
Submitted by Toni1875 on Sun, 2021-12-05 04:37