When Will My Life Begin Outro

Chords

01234567891011121314151617181920212223
E
B
G
D
A
E
B
0 1 2 3 4 5 6 7 8 9 10 11 12 13 14 15 16 17 18 19 20 21 22 23
(/) Slide Up  (\) Slide Down  (h) Hammer On  (p) Pull Off  (b) Bend (r) Release (v) Vibrato

Stave 1:

E|--------0--------0--------0--------0--------0--------0--------0--------0--
B|-----0--------0--------0--------0--------0--------0--------0--------0-----
G|--1--------2--------1--------2--------1--------2--------1--------2--------
D|--------------------------------------------------------------------------
A|--------------------------------------------------------------------------
E|--------------------------------------------------------------------------

Stave 2:

E|--------4--------0--------2--------0--------0--------0--------0--0-----
B|-----5-----------2--------0--------0-----2--------0--------2-----0--4--
G|--6-----------3-----------2-----1-----2--------1--------2--------4--4--
D|-----------4-----------1-----2-----------------------------------4--4--
A|--------------------2--------------------------------------------------
E|-----------------------------------------------------------------------

							http://www.guitartabcreator.com
Instruments
{"strings":[[[".",".",0,".",".",0,".",".",0,".",".",0,".",".",0,".",".",0,".",".",0,".",".",0],[".",0,".",".",0,".",".",0,".",".",0,".",".",0,".",".",0,".",".",0,".",".",0,"."],[1,".",".",2,".",".",1,".",".",2,".",".",1,".",".",2,".",".",1,".",".",2,".","."],[".",".",".",".",".",".",".",".",".",".",".",".",".",".",".",".",".",".",".",".",".",".",".","."],[".",".",".",".",".",".",".",".",".",".",".",".",".",".",".",".",".",".",".",".",".",".",".","."],[".",".",".",".",".",".",".",".",".",".",".",".",".",".",".",".",".",".",".",".",".",".",".","."]],[[".",".",4,".",".",0,".",".",2,".",".",0,".",".",0,".",".",0,".",".",0,0,"."],[".",5,".",".",".",2,".",".",0,".",".",0,".",2,".",".",0,".",".",2,".",0,4],[6,".",".",".",3,".",".",".",2,".",1,".",2,".",".",1,".",".",2,".",".",4,4],[".",".",".",4,".",".",".",1,".",2,".",".",".",".",".",".",".",".",".",".",".",4,4],[".",".",".",".",".",".",2,".",".",".",".",".",".",".",".",".",".",".",".",".",".",".","."],[".",".",".",".",".",".",".",".",".",".",".",".",".",".",".",".",".",".",".",".",".",".","."]]],"numberofstrings":6,"notes":["E","B","G","D","A","E","B"],"capo":0,"stringnotes":["E4","B3","G3","D3","A2","E2"],"comments":["Stave 1:","Stave 2:"],"timing":[["W","W","W","W","W","W","W","W","W","W","W","W","W","W","W","W","W","W","W","W","W","W","W","W"],["W","W","W","W","W","W","W","W","W","W","W","W","W","W","W","W","W","W","W","W","W","W","W"]],"timingvisible":false,"tabcounter":22,"stave":1,"totalstaves":2,"instrument":"6guitar","selectedtuning":"6_standard","version":"13"}

Member for

2 months 4 weeks
Submitted by tomwarren985 on Sat, 2020-06-27 11:07