Kalamazoo

Chords

01234567891011121314151617181920212223
E
B
G
D
A
E
B
0 1 2 3 4 5 6 7 8 9 10 11 12 13 14 15 16 17 18 19 20 21 22 23
(/) Slide Up  (\) Slide Down  (h) Hammer On  (p) Pull Off  (b) Bend (r) Release (v) Vibrato

Chorus (Chorus 1 is whole notes, chorus 2 is quarter notes)

G|--------------------------------------------------------------------------------
D|--------------------------------------------------------------------------------
A|--5-----3--------------5-----3--------------5-----3--------------------3-----5--
E|--------------3--------------------3--------------------0-----2--3--------------

Instrumental

G|-----------------------------------------------------------------------------------------------------
D|--5--5--5--5-----------------------------------------------------------------------------------------
A|--------------5--5--5--5--7--7--7--7--2--2--2-----3--3--3--3--3--3--5--5--------------3--------------
E|-----------------------------------------------3--------------------------3--3--3--3-----3--3--3--3--

Verse

G|--------------------------------------------------------------------------------------------------
D|--5--5--5--5--------------------------------------------------------------------------------------
A|--------------5--5--5--5--7--7--7--7--2--2--2-----3--3--3--3--3--3--5--5--------------------------
E|-----------------------------------------------3--------------------------0--0--0--0--0--0--0--2--

Verse 

G|-----------------------------------------------------------------------------------------------------
D|-----------------------------------------------------------------------------------------------------
A|--------------5--5--5--5--7--7--7--7--2--2--2-----3--3--3--3--3--3--5--5--------------3--------------
E|--3--3--3--3-----------------------------------3--------------------------3--3--3--3-----3--3--3--3--

Outro (repeat til end of song)

G|--------------------------------------
D|--5-----------------------------------
A|-----5--6--7--2-----3-----5-----5--5--
E|-----------------3--------------------

							http://www.guitartabcreator.com
Instruments
{"strings":[[[".","_",".","_",".","_","_",".","_",".","_",".","_","_",".","_",".","_",".","_",".",".","_",".","_","."],[".","_",".","_",".","_","_",".","_",".","_",".","_","_",".","_",".","_",".","_",".",".","_",".","_","."],[5,"_",3,"_",".","_","_",5,"_",3,"_",".","_","_",5,"_",3,"_",".","_",".",".","_",3,"_",5],[".","_",".","_",3,"_","_",".","_",".","_",3,"_","_",".","_",".","_",0,"_",2,3,"_",".","_","."]],[[".",".",".",".",".",".",".",".",".",".",".",".",".",".",".",".",".",".",".",".",".",".",".",".",".",".",".",".",".",".",".",".","."],[5,5,5,5,".",".",".",".",".",".",".",".",".",".",".",".",".",".",".",".",".",".",".",".",".",".",".",".",".",".",".",".","."],[".",".",".",".",5,5,5,5,7,7,7,7,2,2,2,".",3,3,3,3,3,3,5,5,".",".",".",".",3,".",".",".","."],[".",".",".",".",".",".",".",".",".",".",".",".",".",".",".",3,".",".",".",".",".",".",".",".",3,3,3,3,".",3,3,3,3]],[[".",".",".",".",".",".",".",".",".",".",".",".",".",".",".",".",".",".",".",".",".",".",".",".",".",".",".",".",".",".",".","."],[5,5,5,5,".",".",".",".",".",".",".",".",".",".",".",".",".",".",".",".",".",".",".",".",".",".",".",".",".",".",".","."],[".",".",".",".",5,5,5,5,7,7,7,7,2,2,2,".",3,3,3,3,3,3,5,5,".",".",".",".",".",".",".","."],[".",".",".",".",".",".",".",".",".",".",".",".",".",".",".",3,".",".",".",".",".",".",".",".",0,0,0,0,0,0,0,2]],[[".",".",".",".",".",".",".",".",".",".",".",".",".",".",".",".",".",".",".",".",".",".",".",".",".",".",".",".",".",".",".",".","."],[".",".",".",".",".",".",".",".",".",".",".",".",".",".",".",".",".",".",".",".",".",".",".",".",".",".",".",".",".",".",".",".","."],[".",".",".",".",5,5,5,5,7,7,7,7,2,2,2,".",3,3,3,3,3,3,5,5,".",".",".",".",3,".",".",".","."],[3,3,3,3,".",".",".",".",".",".",".",".",".",".",".",3,".",".",".",".",".",".",".",".",3,3,3,3,".",3,3,3,3]],[[".",".",".",".",".",".",".","_",".","_",".","."],[5,".",".",".",".",".",".","_",".","_",".","."],[".",5,6,7,2,".",3,"_",5,"_",5,5],[".",".",".",".",".",3,".","_",".","_",".","."]]],"numberofstrings":4,"notes":["G","D","A","E"],"capo":0,"stringnotes":["G2","D5","A1","E2"],"comments":["Chorus (Chorus 1 is whole notes, chorus 2 is quarter notes)","Instrumental","Verse","Verse ","Outro (repeat til end of song)"],"timing":[["W",null,"W",null,"W",null,null,"W",null,"W",null,"W",null,null,"W",null,"W",null,"W",null,"W","W",null,"W",null,"W"],["W","W","W","W","W","W","W","W","W","W","W","W","W","W","W","W","W","W","W","W","W","W","W","W","W","W","W","W","W","W","W","W","W"],["W","W","W","W","W","W","W","W","W","W","W","W","W","W","W","W","W","W","W","W","W","W","W","W","W","W","W","W","W","W","W","W"],["W","W","W","W","W","W","W","W","W","W","W","W","W","W","W","W","W","W","W","W","W","W","W","W","W","W","W","W","W","W","W","W","W"],["W","W","W","W","W","W","W",null,"W",null,"W","W"]],"timingvisible":false,"tabcounter":12,"stave":4,"totalstaves":5,"instrument":"4bass","selectedtuning":"4bass","version":"13"}

Member for

4 months
Submitted by tomwarren985 on Tue, 2020-07-07 13:56