Sound will begin in 5 seconds

On the turning away

01234567891011121314151617181920212223
E
B
G
D
A
E
B
0 1 2 3 4 5 6 7 8 9 10 11 12 13 14 15 16 17 18 19 20 21 22 23
(/) Slide Up  (\) Slide Down  (h) Hammer On  (p) Pull Off  (b) Bend (r) Release (v) Vibrato

Stave 1:

G|-----------------------------------------------------------------|--
D|--------------------------5--------------------------------------|--
A|--9--10--------3-----3/5-----7-----------------2--5--3--3-----3--|--
E|---------10\3-----0-------------0--0-----2--3--------------3-----|--

Stave 2:

G|--------------------------------------------------------------------
D|--------------------------------------------------------------------
A|--3--3/7--7--7--5-------3h5p3--------3/7--7--7--5-------0--2--5--3--
E|-------------------7\5---------0--3----------------7\3--------------

Stave 3:

G|-----------------------------------------------------------------------------
D|---------------------------------7\5-----------------------------------------
A|-------------2--3-------5--7--5-------5--------------------------------------
E|--3-----0h3--------3/7-------------------3--------3--3--------3--2--0--------

Stave 4:

G|--------------------------------7--9---------------------------------------------------------
D|-------7-------------------7/9-----------7\5-------------------------------------------5--7--
A|--3/5-----3-----3--5--5/7-------------5-------------------2--3-----2--3--5--5-----5h7--------
E|-------------3--------------------------------5-----0--5-----------------------5-------------

Stave 5:

G|--------------------------------------------------------------------------
D|--------------------------------------------------------------------------
A|--------2--3-----3--5--7--------------------------------------------------
E|--5--5--------3-----------------------------------------------------------

Stave 6:

G|--12\11--------\7--------------------------
D|-------------------7/9-----------7\4-------
A|--------------------------------------5/7--
E|-------------------------------------------

http://www.guitartabcreator.com
Guitar Tab Creator is intended to store guitar tab created through the tool. It currently does not support in-line text editing. Any text you place in here will be lost. If you need to comment on your tab, please use the "Tab Notes" section located below.