Pigs (Three Different Ones)

Chords

01234567891011121314151617181920212223
E
B
G
D
A
E
B
0 1 2 3 4 5 6 7 8 9 10 11 12 13 14 15 16 17 18 19 20 21 22 23
(/) Slide Up  (\) Slide Down  (h) Hammer On  (p) Pull Off  (b) Bend (r) Release (v) Vibrato

Stave 1:

G|--16p14--16--------16p14--|--16--------|--14-----12-----11-----12p11-----9-----7/
D|--------------------------|------------|-----------------------------------------
A|--------------------------|------------|-----------------------------------------
E|--------------------------|------------|-----------------------------------------

Stave 2:

G|--9-----------------------|-----9--------------9\9--------------4/|--16-----------------------------------|--
D|--------------------------|---------------------------------------|---------------------------------------|--
A|--------------------------|---------------------------------------|---------------------------------------|--
E|--------------------------|---------------------------------------|---------------------------------------|--

Stave 3:

G|--19p16-----------------|--17--------|--16-----14-----12-----14p12-----11-----12p11-----|--
D|------------------------|------------|--------------------------------------------------|--
A|------------------------|------------|--------------------------------------------------|--
E|------------------------|------------|--------------------------------------------------|--

Stave 4:

G|--9-----------------------|-----9--------------11----------------|---------------------|--
D|--------------------------|---------------------------12---------|--10-----------------|--
A|--------------------------|----------------------------------10--|---------------------|--
E|--------------------------|--------------------------------------|---------------------|--

							http://www.guitartabcreator.com
Instruments
{"strings":[[[16,"p",14,16,"_","_",16,"p",14,"|",16,"_","_","|",14,"_",12,"_",11,"_",12,"p",11,"_",9,"_",7,"/"],[".",".",".",".","_","_",".",".",".","|",".","_","_","|",".","_",".","_",".","_",".",".",".","_",".","_",".","."],[".",".",".",".","_","_",".",".",".","|",".","_","_","|",".","_",".","_",".","_",".",".",".","_",".","_",".","."],[".",".",".",".","_","_",".",".",".","|",".","_","_","|",".","_",".","_",".","_",".",".",".","_",".","_",".","."]],[[9,"_","_","_","_","_","_","_","|",".",9,"_","_","_","_",9,"\\",9,"_","_","_","_",4,"/","|",16,"_","_","_","_","_","_","_","_","_","_","_","|"],[".","_","_","_","_","_","_","_","|",".",".","_","_","_","_",".",".",".","_","_","_","_",".",".","|",".","_","_","_","_","_","_","_","_","_","_","_","|"],[".","_","_","_","_","_","_","_","|",".",".","_","_","_","_",".",".",".","_","_","_","_",".",".","|",".","_","_","_","_","_","_","_","_","_","_","_","|"],[".","_","_","_","_","_","_","_","|",".",".","_","_","_","_",".",".",".","_","_","_","_",".",".","|",".","_","_","_","_","_","_","_","_","_","_","_","|"]],[[19,"p",16,"_","_","_","_","_","|",17,"_","_","|",16,"_",14,"_",12,"_",14,"p",12,"_",11,"_",12,"p",11,"_","|"],[".",".",".","_","_","_","_","_","|",".","_","_","|",".","_",".","_",".","_",".",".",".","_",".","_",".",".",".","_","|"],[".",".",".","_","_","_","_","_","|",".","_","_","|",".","_",".","_",".","_",".",".",".","_",".","_",".",".",".","_","|"],[".",".",".","_","_","_","_","_","|",".","_","_","|",".","_",".","_",".","_",".",".",".","_",".","_",".",".",".","_","|"]],[[9,"_","_","_","_","_","_","_","|","_",9,"_","_","_","_",11,"_",".","_",".","|",".","_","_","_","_","_","|"],[".","_","_","_","_","_","_","_","|","_",".","_","_","_","_",".","_",12,"_",".","|",10,"_","_","_","_","_","|"],[".","_","_","_","_","_","_","_","|","_",".","_","_","_","_",".","_",".","_",10,"|",".","_","_","_","_","_","|"],[".","_","_","_","_","_","_","_","|","_",".","_","_","_","_",".","_",".","_",".","|",".","_","_","_","_","_","|"]]],"numberofstrings":4,"notes":["G","D","A","E"],"capo":0,"stringnotes":["G2","D2","A1","E1"],"comments":["Stave 1:","Stave 2:","Stave 3:","Stave 4:"],"timing":[["W","W","W","W",null,null,"W",null,"W",null,"W",null,null,null,"W","W","W",null,"W",null,"W",null,"W",null,"W",null,"W",null,"W"],["W",null,null,null,null,null,null,null,null,null,"W",null,null,"W",null,"W",null,"W",null,"W",null,null,"W",null,null,"W"],["W",null,"W",null,null,null,null,null,null,"W",null,null,null,"W",null,"W",null,"W",null,"W",null,"W",null,"W",null,"W",null,"W"],["W",null,null,null,null,null,null,null,null,null,"W",null,null,null,null,"W","W","W",null,"W","W","W"]],"timingvisible":false,"tabcounter":28,"stave":3,"totalstaves":4,"instrument":"4bass","selectedtuning":"4bass","version":"13"}

Member for

2 years 6 months
Submitted by TomW on Sun, 2020-10-18 16:04