Sound will begin in 5 seconds

Tapping

Chords
01234567891011121314151617181920212223
E
B
G
D
A
E
B
0 1 2 3 4 5 6 7 8 9 10 11 12 13 14 15 16 17 18 19 20 21 22 23
Song Science #1: How Pros Use 6 Chords to Write Hit Songs
(/) Slide Up  (\) Slide Down  (h) Hammer On  (p) Pull Off  (b) Bend (r) Release (v) Vibrato

Stave 1:

E|-------------------------------|-1-2-1-5-1-6-1-8-1-9-1-11-1-13-|-
B|-0-1-0-4-0-5-0-7-0-8-0-10-0-12-|-------------------------------|-
G|-------------------------------|-------------------------------|-
D|-------------------------------|-------------------------------|-
A|-------------------------------|-------------------------------|-
E|-------------------------------|-------------------------------|-

Stave 2:

E|-5-7-8-10-12-13-12-10-8-7-|---------------------------|-
B|-5-6-8-10-12-13-12-10-8-6-|-5-6-8-10-12-15-12-10-10-8-|-
G|-5------------------------|-5-7-9-10-12-14-10-7--9--7-|-
D|--------------------------|---------------------------|-
A|--------------------------|---------------------------|-
E|--------------------------|---------------------------|-

Stave 3:

E|-7-5-3-1-3-5-7/8-7-5-3-5-7-8/10-8-7-5-7-8-10/12-10-8-7-8-10-12-
B|---------------------------------------------------------------
G|---------------------------------------------------------------
D|---------------------------------------------------------------
A|---------------------------------------------------------------
E|---------------------------------------------------------------

http://www.guitartabcreator.com
Guitar Tab Creator is intended to store guitar tab created through the tool. It currently does not support in-line text editing. Any text you place in here will be lost. If you need to comment on your tab, please use the "Tab Notes" section located below.