Sound will begin in 5 seconds

RnB Sus Chords - G Major

Chords
01234567891011121314151617181920212223
E
B
G
D
A
E
B
0 1 2 3 4 5 6 7 8 9 10 11 12 13 14 15 16 17 18 19 20 21 22 23
Song Science #1: How Pros Use 6 Chords to Write Hit Songs
(/) Slide Up  (\) Slide Down  (h) Hammer On  (p) Pull Off  (b) Bend (r) Release (v) Vibrato

Stave 1:

E|---3---3---3---5---
B|---3---3---3---3---
G|---4---5---2---4---
D|-------------------
A|-------------------
E|-------------------

Stave 2:

E|---5---5---5---7---
B|---5---5---3---5---
G|---5---7---5---5---
D|-------------------
A|-------------------
E|-------------------

Stave 3:

E|---7---8---7---7---
B|---7---7---5---7---
G|---7---7---7---9---
D|-------------------
A|-------------------
E|-------------------

Stave 4:

E|---8---8----10---8---
B|---8---8----8----8---
G|---9---11---9----7---
D|---------------------
A|---------------------
E|---------------------

Stave 5:

E|---10---10---12---10---
B|---10---10---10---10---
G|---11---12---11---9----
D|-----------------------
A|-----------------------
E|-----------------------

Stave 6:

E|---12---14---12---12---
B|---12---12---12---12---
G|---12---12---14---11---
D|-----------------------
A|-----------------------
E|-----------------------

Stave 7:

E|---14---15---14---14---
B|---13---13---13---15---
G|---14---14---12---14---
D|-----------------------
A|-----------------------
E|-----------------------

http://www.guitartabcreator.com
Guitar Tab Creator is intended to store guitar tab created through the tool. It currently does not support in-line text editing. Any text you place in here will be lost. If you need to comment on your tab, please use the "Tab Notes" section located below.