Sound will begin in 5 seconds

Pent - Mixb6

01234567891011121314151617181920212223
E
B
G
D
A
E
B
0 1 2 3 4 5 6 7 8 9 10 11 12 13 14 15 16 17 18 19 20 21 22 23
Song Science #1: How Pros Use 6 Chords to Write Hit Songs
(/) Slide Up  (\) Slide Down  (h) Hammer On  (p) Pull Off  (b) Bend (r) Release (v) Vibrato

Stave 1:

E|-5-------|-----------------|-----------|---------------|-
B|---8---5-|-6-5-------------|-----------|-------6-------|-
G|-----7---|-----6-4---6-4---|-------5---|---6-9---7-----|-
D|---------|---------5-----5-|---5-7---7-|-9---------9-7-|-
A|---------|-----------------|-7---------|---------------|-
E|---------|-----------------|-----------|---------------|-

Stave 2:

E|--------8----|-------7----------------------|-12-10-------|-7---------------|-
B|-10-8-----10-|-12-10---10-8-----------------|-------13-10-|---8-6-----------|-
G|------9------|--------------10-7-9-7--------|-------------|-------7-6-----4-|-
D|-------------|-----------------------9-11-9-|-------------|-----------7-5---|-
A|-------------|------------------------------|-------------|-----------------|-
E|-------------|------------------------------|-------------|-----------------|-

Stave 3:

E|---------------|-------------------3-|-------------|---------------|-
B|---3---5-------|---------------2-5---|-5-3-5-------|---------------|-
G|-2---4---5-----|-------------2-------|-------5-2-5-|-4-2-----------|-
D|-----------5-7-|-5-------2-3---------|-------------|-----3-5-3-----|-
A|---------------|---5-4-5-------------|-------------|-----------4-2-|-
E|---------------|---------------------|-------------|---------------|-

Stave 4:

E|-------|-----------7-------|-----5---|-----------------------|-
B|-------|-----5-6-8---6-----|---------|-5-6-5---8-5-----------|-
G|---7---|-4-6-----------6-4-|---4---6-|-------6-----6-4-------|-
D|-7---7-|-------------------|-5-------|-----------------5-----|-
A|-------|-------------------|---------|-------------------5-7-|-
E|-------|-------------------|---------|-----------------------|-

http://www.guitartabcreator.com
Guitar Tab Creator is intended to store guitar tab created through the tool. It currently does not support in-line text editing. Any text you place in here will be lost. If you need to comment on your tab, please use the "Tab Notes" section located below.