Sound will begin in 5 seconds

NewPent Gb 1 b3 4 6 b7

01234567891011121314151617181920212223
E
B
G
D
A
E
B
0 1 2 3 4 5 6 7 8 9 10 11 12 13 14 15 16 17 18 19 20 21 22 23
Song Science #1: How Pros Use 6 Chords to Write Hit Songs
(/) Slide Up  (\) Slide Down  (h) Hammer On  (p) Pull Off  (b) Bend (r) Release (v) Vibrato

Stave 1:

E|---------------------2-|-5-----2-----------------------------------------------|-
B|-----------------4-5---|---5-4---4---5-----4-----------------------------------|-
G|-------------2-4-------|-----------4---4-2---2---4-----2-----------------------|-
D|-------1-2-4-----------|-----------------------4---4-2---2-1-4-1---2-----1-----|-
A|-----2-----------------|-----------------------------------------2---2---------|-
E|-2-5-------------------|-----------------------------------------------5---5-2-|-

Stave 2:

E|-------------------5-7-|-------------------------------5---7-|-
B|-------------4-5-7-----|-------------------4---5-4-7-5---7---|-
G|-----------4-----------|---------------4-----4---------------|-
D|-------4-7-------------|-------4---7-4---7-------------------|-
A|-----6-----------------|---6-----6---------------------------|-
E|-5-7-------------------|-5---7-------------------------------|-

Stave 3:

E|----------------------7-|-
B|-----------------7-10---|-
G|-------------8-9--------|-
D|---------7-9------------|-
A|---6-7-9----------------|-
E|-7----------------------|-

Stave 4:

E|----------------------------11-12-|-
B|----------------------10-12-------|-
G|-----------------9-11-------------|-
D|------------9-13------------------|-
A|-------9-12-----------------------|-
E|-11-12----------------------------|-

Stave 5:

E|-------------------------------12-
B|-------------------------12-16----
G|-------------------11-14----------
D|-------------13-14----------------
A|-------12-14----------------------
E|-12-14----------------------------

Stave 6:

E|-
B|-
G|-
D|-
A|-
E|-

http://www.guitartabcreator.com
Guitar Tab Creator is intended to store guitar tab created through the tool. It currently does not support in-line text editing. Any text you place in here will be lost. If you need to comment on your tab, please use the "Tab Notes" section located below.