Sound will begin in 5 seconds

Melodic Minor Intervals - Ascending

01234567891011121314151617181920212223
E
B
G
D
A
E
B
0 1 2 3 4 5 6 7 8 9 10 11 12 13 14 15 16 17 18 19 20 21 22 23
Song Science #1: How Pros Use 6 Chords to Write Hit Songs
(/) Slide Up  (\) Slide Down  (h) Hammer On  (p) Pull Off  (b) Bend (r) Release (v) Vibrato

Stave 1:

E|-----------------------------------------3--4--6--|--
B|-----------------------------------4--6-----------|--
G|--------------------------3--4--6-----------------|--
D|-----------------3--5--6--------------------------|--
A|-----------4--6-----------------------------------|--
E|--4--6--7-----------------------------------------|--

Stave 2:

E|-----------------------------------------------------------------------3-----4--3--6--|--
B|-----------------------------------------------------------4-----6--4-----6-----------|--
G|-----------------------------------------3-----4--3--6--4-----6-----------------------|--
D|-----------------------3-----5--3--6--5-----6-----------------------------------------|--
A|-----------4-----6--4-----6-----------------------------------------------------------|--
E|--4--7--6-----7-----------------------------------------------------------------------|--

Stave 3:

E|-----------------------------------------------------------------3-----4-----6--3--7--|--
B|-----------------------------------------------------4-----6--------4-----6-----------|--
G|-----------------------------------3-----4-----6--3-----4-----6-----------------------|--
D|-----------------3-----5-----6--3-----5-----6-----------------------------------------|--
A|-----4-----6--------4-----6-----------------------------------------------------------|--
E|--4-----6-----7-----------------------------------------------------------------------|--

Stave 4:

E|-----------------------------------------------------------3-----4-----6-----7--|--
B|-----------------------------------------------4-----6--------------4-----6-----|--
G|-----------------------------3-----4-----6--------3-----4-----6-----------------|--
D|-----------3-----5-----6--------3-----5-----6-----------------------------------|--
A|-----6--------------4-----6-----------------------------------------------------|--
E|--4-----6-----7-----------------------------------------------------------------|--

Stave 5:

E|-----------------------------------------------------3-----4-----6-----7--|--
B|-----------------------------------------4-----6--------------------4-----|--
G|-----------------------3-----4-----6--------------3-----4-----6-----------|--
D|-----3-----5-----6--------------3-----5-----6-----------------------------|--
A|--------------------4-----6-----------------------------------------------|--
E|--4-----6-----7-----------------------------------------------------------|--

Stave 6:

E|-----------------------------------------------3-----4-----6-----7--
B|-----------------------------------4-----6--------------------------
G|-----------------3-----4-----6--------------------3-----4-----6-----
D|-----5-----6--------------------3-----5-----6-----------------------
A|--------------------4-----6-----------------------------------------
E|--4-----6-----7-----------------------------------------------------

http://www.guitartabcreator.com
Guitar Tab Creator is intended to store guitar tab created through the tool. It currently does not support in-line text editing. Any text you place in here will be lost. If you need to comment on your tab, please use the "Tab Notes" section located below.