Sound will begin in 5 seconds

E Rawk Runthrough

01234567891011121314151617181920212223
E
B
G
D
A
E
B
0 1 2 3 4 5 6 7 8 9 10 11 12 13 14 15 16 17 18 19 20 21 22 23
Song Science #1: How Pros Use 6 Chords to Write Hit Songs
(/) Slide Up  (\) Slide Down  (h) Hammer On  (p) Pull Off  (b) Bend (r) Release (v) Vibrato

Stave 1:

E|-10---------|-7-------|-------5-|-3-------|---------|-----------|------------|-------12-|-15-12-------
B|----12-10-8-|---8-7---|-----5---|---5---3-|---------|-----------|------------|-12-15----|-------15----
G|------------|-------7-|-7-6-----|-----4---|-6-7-----|---9-11----|------12-13-|----------|----------14-
D|------------|---------|---------|---------|-----7-5-|-7------10-|-9-12-------|----------|-------------
A|------------|---------|---------|---------|---------|-----------|------------|----------|-------------
E|------------|---------|---------|---------|---------|-----------|------------|----------|-------------

Stave 2:

E|-------------|-------------|---------|---------|---------|---|-
B|-14----14-13-|-12----12-10-|---------|-------5-|---------|---|-
G|----12-------|----11-------|-9---9---|---7b9---|-4-2-4-2-|---|-
D|-------------|-------------|---9---9-|-6-------|---------|---|-
A|-------------|-------------|---------|---------|---------|---|-
E|-------------|-------------|---------|---------|---------|-0-|-

Stave 3:

E|---3-----|---------|---------|---------|-5---3---|---------|---------|-
B|-3---5---|---------|---------|---------|---5-----|---------|---------|-
G|-------4-|---1-2-3-|---------|-------4-|-------4-|-1-2-----|---------|-
D|---------|-5-------|-2-------|---4-5---|---------|-----4---|---2-5---|-
A|---------|---------|---4-2---|-5-------|---------|-------2-|-4-----4-|-
E|---------|---------|-------5-|---------|---------|---------|---------|-

Stave 4:

E|---------|---------|---------|---------5---7---|-------7-|---------|---------|---|-
B|---------|-----5---|---------|-------8---7---8-|-5-------|-8-5-----|---------|---|-
G|-4-----4-|-7-6---4-|---------|---6-7-----------|---6-7---|-----6-4-|-7-4-----|---|-
D|---5-7---|---------|---------|-5---------------|---------|---------|-----7-5-|-5-|-
A|---------|---------|-7---4-5-|-----------------|---------|---------|---------|---|-
E|---------|---------|---7-----|-----------------|---------|---------|---------|---|-

Stave 5:

E|----------|---------|------7---|---10------|---------|----------|--------7-|----------|-
B|----------|---------|-10-8---8-|-8----10-8-|---------|----------|---8-10---|-8--------|-
G|--------7-|---9-7---|----------|-----------|-------9-|----------|----------|---7------|-
D|-7----9---|-9-----9-|----------|-----------|-9---7---|--------8-|-9--------|-----7----|-
A|---10-----|---------|----------|-----------|---7-----|-7--------|----------|-------10-|-
E|----------|---------|----------|-----------|---------|---10-7---|----------|----------|-

http://www.guitartabcreator.com
Guitar Tab Creator is intended to store guitar tab created through the tool. It currently does not support in-line text editing. Any text you place in here will be lost. If you need to comment on your tab, please use the "Tab Notes" section located below.