Sound will begin in 5 seconds

E Aeolian

01234567891011121314151617181920212223
E
B
G
D
A
E
B
0 1 2 3 4 5 6 7 8 9 10 11 12 13 14 15 16 17 18 19 20 21 22 23
Song Science #1: How Pros Use 6 Chords to Write Hit Songs
(/) Slide Up  (\) Slide Down  (h) Hammer On  (p) Pull Off  (b) Bend (r) Release (v) Vibrato

Stave 1:

E|-15-14-12-------------------------------------------
B|----------15-13-12----------------------------------
G|-------------------14-12-11-------------------------
D|----------------------------14-12-10----------------
A|-------------------------------------14-12-10-------
E|----------------------------------------------14-12-

Stave 2:

E|-14-12-10------------------------------------------
B|----------13-12-10---------------------------------
G|-------------------12-11-9-------------------------
D|---------------------------12-10-9-----------------
A|-----------------------------------12-10-9---------
E|-------------------------------------------12-10-8-

Stave 3:

E|-12-10-8-------------------------------------
B|---------12-10-8-----------------------------
G|-----------------11-9-7----------------------
D|------------------------10-9-7---------------
A|-------------------------------10-9-7--------
E|--------------------------------------10-8-7-

Stave 4:

E|-10-8-7--------------------------------
B|--------10-8-7-------------------------
G|---------------9-7-5-------------------
D|---------------------9-7-5-------------
A|---------------------------9-7-5-------
E|---------------------------------8-7-5-

Stave 5:

E|-8-7-5-------------------------------
B|-------8-7-5-------------------------
G|-------------7-5-4-------------------
D|-------------------7-5-4-------------
A|-------------------------7-5-3-------
E|-------------------------------7-5-3-

Stave 6:

E|-7-5-3-------------------------------
B|-------7-5-3-------------------------
G|-------------5-4-2-------------------
D|-------------------5-4-2-------------
A|-------------------------5-3-2-------
E|-------------------------------5-3-2-

Stave 7:

E|-
B|-
G|-
D|-
A|-
E|-

http://www.guitartabcreator.com
Guitar Tab Creator is intended to store guitar tab created through the tool. It currently does not support in-line text editing. Any text you place in here will be lost. If you need to comment on your tab, please use the "Tab Notes" section located below.