Sound will begin in 5 seconds

C.C. Picking Exercise.

01234567891011121314151617181920212223
E
B
G
D
A
E
B
0 1 2 3 4 5 6 7 8 9 10 11 12 13 14 15 16 17 18 19 20 21 22 23
Song Science #1: How Pros Use 6 Chords to Write Hit Songs
(/) Slide Up  (\) Slide Down  (h) Hammer On  (p) Pull Off  (b) Bend (r) Release (v) Vibrato

Stave 1:

E|--------------|--8--10--7--8--|------------------|----------------|--
B|--8--7--6--5--|---------------|--13--11--15--11--|----------------|--
G|--------------|---------------|------------------|--10--8--9--10--|--
D|--------------|---------------|------------------|----------------|--
A|--------------|---------------|------------------|----------------|--
E|--------------|---------------|------------------|----------------|--

Stave 2:

E|------------------|---------------|--------------|--6--5--------|--
B|--13--11----------|--9--8---------|--8--6--------|--------6--5--|--
G|----------12--11--|--------10--9--|--------7--5--|--------------|--
D|------------------|---------------|--------------|--------------|--
A|------------------|---------------|--------------|--------------|--
E|------------------|---------------|--------------|--------------|--

Stave 3:

E|--------------|---------------|------------------|--------------|--
B|--6-----------|--10-----------|--11--------------|--3-----------|--
G|-----7--5-----|------9--7-----|------12--10------|-----5--2-----|--
D|-----------7--|------------8--|--------------12--|-----------3--|--
A|--------------|---------------|------------------|--------------|--
E|--------------|---------------|------------------|--------------|--

Stave 4:

E|--5--3--------|--8--6--------|------------------|--------------
B|--------5-----|--------8-----|--11--10----------|--4--3--------
G|-----------7--|-----------9--|----------10------|--------5-----
D|--------------|--------------|--------------12--|-----------5--
A|--------------|--------------|------------------|--------------
E|--------------|--------------|------------------|--------------

Stave 5:

E|--------------|--5-----------|--8--------------|--------------|--
B|--3-----------|-----5--------|-----10----------|--------------|--
G|-----5--------|--------7--5--|---------11--10--|--5-----------|--
D|--------5--3--|--------------|-----------------|-----7--------|--
A|--------------|--------------|-----------------|--------7--6--|--
E|--------------|--------------|-----------------|--------------|--

http://www.guitartabcreator.com
Guitar Tab Creator is intended to store guitar tab created through the tool. It currently does not support in-line text editing. Any text you place in here will be lost. If you need to comment on your tab, please use the "Tab Notes" section located below.