Sound will begin in 5 seconds

C Maj Country Ghosts

01234567891011121314151617181920212223
E
B
G
D
A
E
B
0 1 2 3 4 5 6 7 8 9 10 11 12 13 14 15 16 17 18 19 20 21 22 23
Song Science #1: How Pros Use 6 Chords to Write Hit Songs
(/) Slide Up  (\) Slide Down  (h) Hammer On  (p) Pull Off  (b) Bend (r) Release (v) Vibrato

Stave 1:

E|-------3-|-------5-|-------7-|-------8-|-------10-|----------12-|----------13-|-
B|-1-1-1---|-3-3-3---|-5-5-5---|-6-6-6---|-8-8-8----|-10-10-10----|-12-12-12----|-
G|---------|---------|---------|---------|----------|-------------|-------------|-
D|---------|---------|---------|---------|----------|-------------|-------------|-
A|---------|---------|---------|---------|----------|-------------|-------------|-
E|---------|---------|---------|---------|----------|-------------|-------------|-

Stave 2:

E|-------1-|-------3-|-------5-|-------7-|-------8-|----------10-|----------12-|-
B|---------|---------|---------|---------|---------|-------------|-------------|-
G|-2-2-2---|-4-4-4---|-5-5-5---|-7-7-7---|-9-9-9---|-10-10-10----|-12-12-12----|-
D|---------|---------|---------|---------|---------|-------------|-------------|-
A|---------|---------|---------|---------|---------|-------------|-------------|-
E|---------|---------|---------|---------|---------|-------------|-------------|-

Stave 3:

E|---------|---------|---------|---------|---------|-------------|-------------
B|-------1-|-------3-|-------5-|-------6-|-------8-|----------10-|----------12-
G|---------|---------|---------|---------|---------|-------------|-------------
D|-2-2-2---|-3-3-3---|-5-5-5---|-7-7-7---|-9-9-9---|-10-10-10----|-12-12-12----
A|---------|---------|---------|---------|---------|-------------|-------------
E|---------|---------|---------|---------|---------|-------------|-------------

Stave 4:

E|---------|---------|---------|---------|------------|-------------|-------------|-
B|---------|---------|---------|---------|------------|-------------|-------------|-
G|-------2-|-------4-|-------5-|-------7-|----------9-|----------10-|----------12-|-
D|---------|---------|---------|---------|------------|-------------|-------------|-
A|-3-3-3---|-5-5-5---|-7-7-7---|-8-8-8---|-10-10-10---|-12-12-12----|-14-14-14----|-
E|---------|---------|---------|---------|------------|-------------|-------------|-

http://www.guitartabcreator.com
Guitar Tab Creator is intended to store guitar tab created through the tool. It currently does not support in-line text editing. Any text you place in here will be lost. If you need to comment on your tab, please use the "Tab Notes" section located below.