Sound will begin in 5 seconds

B Country 16ths - 5thstart I-IV

Chords
01234567891011121314151617181920212223
E
B
G
D
A
E
B
0 1 2 3 4 5 6 7 8 9 10 11 12 13 14 15 16 17 18 19 20 21 22 23
Song Science #1: How Pros Use 6 Chords to Write Hit Songs
(/) Slide Up  (\) Slide Down  (h) Hammer On  (p) Pull Off  (b) Bend (r) Release (v) Vibrato

Stave 1:

E|-------------10-11-14---------------------------|------------------------9-7-7-7-7-7-|-
B|----------12----------12------------------------|--------------------8-9-----8b9-8---|-
G|-11-10-11----------------13----------------8-10-|-8-7-6------------9-----------------|-
D|----------------------------13-12-------11------|-------9-------10-------------------|-
A|----------------------------------12-11---------|---------10-11----------------------|-
E|------------------------------------------------|------------------------------------|-

Stave 2:

E|---------------------------------------|--------------7-10------12-12---12-10-12-|-
B|-4-------------7-12--------------------|------------9------9-10------------------|-
G|-------2-----4------13-----------------|------7-8-9-------------------9----------|-
D|-----4-----7-----------13----12-9------|----9------------------------------------|-
A|---2-----6----------------12------12-9-|-11--------------------------------------|-
E|---------------------------------------|-----------------------------------------|-

http://www.guitartabcreator.com
Guitar Tab Creator is intended to store guitar tab created through the tool. It currently does not support in-line text editing. Any text you place in here will be lost. If you need to comment on your tab, please use the "Tab Notes" section located below.