Sound will begin in 5 seconds

Altered Ascending

01234567891011121314151617181920212223
E
B
G
D
A
E
B
0 1 2 3 4 5 6 7 8 9 10 11 12 13 14 15 16 17 18 19 20 21 22 23
Song Science #1: How Pros Use 6 Chords to Write Hit Songs
(/) Slide Up  (\) Slide Down  (h) Hammer On  (p) Pull Off  (b) Bend (r) Release (v) Vibrato

Stave 1:

E|-----------------------------2-3-5-6-|-
B|-------------------------3-5---------|-
G|-------------------2-3-5-------------|-
D|-------------2-4-5-------------------|-
A|-------1-3-5-------------------------|-
E|-2-3-5-------------------------------|-

Stave 2:

E|---------------------------------------------------2---3-2-5-3-6-|-
B|-------------------------------------------3---5-3---5-----------|-
G|-------------------------------2---3-2-5-3---5-------------------|-
D|-------------------2---4-2-5-4---5-------------------------------|-
A|-------1---3-1-5-3---5-------------------------------------------|-
E|-2-5-3---5-------------------------------------------------------|-

Stave 3:

E|-----------------------------------------------2---3---5-2-6-|-
B|---------------------------------------3---5-----3---5-------|-
G|---------------------------2---3---5-2---3---5---------------|-
D|---------------2---4---5-2---4---5---------------------------|-
A|---1---3---5-1---3---5---------------------------------------|-
E|-2---3---5---------------------------------------------------|-

Stave 4:

E|-------------------------------------------2---3---5---6-|-
B|-----------------------------------3---5---------3---5---|-
G|-----------------------2---3---5-----2---3---5-----------|-
D|-----------2---4---5-----2---4---5-----------------------|-
A|---3---5-----1---3---5-----------------------------------|-
E|-2---3---5-----------------------------------------------|-

Stave 5:

E|---------------------------------------2---3---5---6-
B|-------------------------------3---5-------------3---
G|-------------------2---3---5---------2---3---5-------
D|-------2---4---5---------2---4---5-------------------
A|---5---------1---3---5-------------------------------
E|-2---3---5-------------------------------------------

Stave 6:

E|-----------------------------------2---3---5---6-|-
B|---------------------------3---5-----------------|-
G|---------------2---3---5-------------2---3---5---|-
D|---2---4---5-------------2---4---5---------------|-
A|-------------1---3---5---------------------------|-
E|-2---3---5---------------------------------------|-

http://www.guitartabcreator.com
Guitar Tab Creator is intended to store guitar tab created through the tool. It currently does not support in-line text editing. Any text you place in here will be lost. If you need to comment on your tab, please use the "Tab Notes" section located below.