Sound will begin in 5 seconds

6/9

Chords
01234567891011121314151617181920212223
E
B
G
D
A
E
B
0 1 2 3 4 5 6 7 8 9 10 11 12 13 14 15 16 17 18 19 20 21 22 23
Song Science #1: How Pros Use 6 Chords to Write Hit Songs
(/) Slide Up  (\) Slide Down  (h) Hammer On  (p) Pull Off  (b) Bend (r) Release (v) Vibrato

Stave 1:

E|--------10--|--5------5--|--10--10--|--0---------|--5--5--5---|--0-----|--
B|--3-----10--|--3--10-----|----------|--3--5------|--5--5--5---|--------|--
G|--2--7--9---|-----7---7--|--9---9---|--2--7--9---|--------7---|--2--9--|--
D|--2--7--10--|--2---------|--7-------|-----7--12--|-----7--10--|--0--7--|--
A|--3--7------|--3--7---7--|------12--|--3-----12--|--5---------|--3--5--|--
E|-----8------|-----8---8--|--8---8---|-----8--8---|--8--8------|-----8--|--

Stave 2:

E|--10--10---------|------5--17--5--|-----10--|--8------|--5--|--8-------|--
B|--10--10--3--15--|--10--3--15--3--|--3------|-----13--|-----|--10--13--|--
G|----------2--14--|--7---5---------|--5------|--7------|--5--|--7---14--|--
D|--10--10---------|--10------------|--7--10--|--7--12--|-----|------12--|--
A|--7-------3--15--|--7---7--15--3--|--7--12--|--7--12--|--5--|--7-------|--
E|------12--0--12--|---------12--0--|-----12--|-----12--|--0--|------12--|--

Stave 3:

E|-----10--|--12--|--10--|--8--|-----12--|--8-----8---|--
B|--3------|--15--|--13--|-----|--5--13--|--5---------|--
G|-----9---|------|------|--7--|--5------|--7--5--9---|--
D|--2--10--|------|--14--|-----|-----12--|--7--2--12--|--
A|--3--12--|--15--|--12--|--7--|--5--12--|-----5--12--|--
E|--5------|--17--|------|--5--|--5------|-----5------|--

Stave 4:

E|--5------|--12--|--5------|--8---8------|---------12--|--8--8-------|--
B|--5--10--|--10--|-----10--|--10--10--1--|--5------13--|--5------13--|--
G|--5--9---|------|--5------|--9---9---2--|--5--9---14--|-----9---9---|--
D|-----10--|--10--|--2--10--|----------2--|--7--10--12--|--7--7-------|--
A|--5------|------|--5--7---|------5---5--|--5--12------|--5------12--|--
E|-----10--|--10--|-----10--|--10---------|-----10------|-----10--10--|--

http://www.guitartabcreator.com
Guitar Tab Creator is intended to store guitar tab created through the tool. It currently does not support in-line text editing. Any text you place in here will be lost. If you need to comment on your tab, please use the "Tab Notes" section located below.