Sound will begin in 5 seconds

32nd Note

01234567891011121314151617181920212223
E
B
G
D
A
E
B
0 1 2 3 4 5 6 7 8 9 10 11 12 13 14 15 16 17 18 19 20 21 22 23
Song Science #1: How Pros Use 6 Chords to Write Hit Songs
(/) Slide Up  (\) Slide Down  (h) Hammer On  (p) Pull Off  (b) Bend (r) Release (v) Vibrato

Stave 1:

E|-7/8-5---|---------|---------|---------|-------------|-----------|-12-13-13-10-|-------------|-
B|-------7-|-5-------|-2/3-1---|---------|-10-13-10----|-10---8-10-|-------------|-11/10----13-|-
G|---------|---6-4-4-|-------2-|---------|----------12-|----9------|-------------|-------12----|-
D|---------|---------|---------|-5-4---7-|-------------|-----------|-------------|-------------|-
A|---------|---------|---------|-----7---|-------------|-----------|-------------|-------------|-
E|---------|---------|---------|---------|-------------|-----------|-------------|-------------|-

Stave 2:

E|-15-17-15----|-------------|-------------|-------------|----
B|----------16-|-14-16-14----|-------13----|-------------|----
G|-------------|----------17-|-13-14----14-|-------------|----
D|-------------|-------------|-------------|-15-------15-|-17-
A|-------------|-------------|-------------|----15-17----|----
E|-------------|-------------|-------------|-------------|----

http://www.guitartabcreator.com
Guitar Tab Creator is intended to store guitar tab created through the tool. It currently does not support in-line text editing. Any text you place in here will be lost. If you need to comment on your tab, please use the "Tab Notes" section located below.