Sound will begin in 5 seconds

Wishes

01234567891011121314151617181920212223
E
B
G
D
A
E
B
0 1 2 3 4 5 6 7 8 9 10 11 12 13 14 15 16 17 18 19 20 21 22 23
Song Science #1: How Pros Use 6 Chords to Write Hit Songs
(/) Slide Up  (\) Slide Down  (h) Hammer On  (p) Pull Off  (b) Bend (r) Release (v) Vibrato

Stave 1:

E|----------------------------------------------------
B|----------------------------------------------------
G|----------------------------------------------------
D|----------------------------------------------------
A|--------------7---------8---------------------------
E|-0--0-0--0-0-----0-0-0-----0--0-0--0-0--0--0-0--0-0-

Stave 2:

E|----------------------------------------------------
B|----------------------------------------------------
G|----------------------------------------------------
D|----------------------------------------------------
A|--------------7---------8---------------8--7--10----
E|-0--0-0--0-0-----0-0-0-----0--0-0--0-0--------------

Stave 3:

E|---------------------------------------------------------------
B|---------------------------------------------------------------
G|---------------------------------------------------------------
D|---------------------------------------------------------------
A|-------------------7------------8------------------------------
E|-10--10-10--10-10-----10-10-10-----10--10-10--10--10-10--10-10-

Stave 4:

E|-----------------------------------------------------------
B|-----------------------------------------------------------
G|-----------------------------------------------------------
D|-----------------------------------------------------------
A|--------------7---------8---------------7h8p7----7----7h10-
E|-8--8-8--8-8-----8-8-8-----8--8-8--8-8--------10---10------

Stave 5:

E|---------------------------------------
B|---------------------------------------
G|---------------------------------------
D|----7----7-----------------7-----------
A|---------------------------------------
E|-0-----0---0---0-0-0-0--0-----0--0-0-0-

Stave 6:

E|---------------------------------------
B|---------------------------------------
G|---------------------------------------
D|----7----7-----------------7-----------
A|---------------------------------------
E|-8-----8---8---8-8-8-8--8-----8--8-8-8-

Stave 7:

E|-------------------------------------
B|-------------------------------------
G|-------------------------------------
D|----7----7-----------------7-----7---
A|-------------------------------------
E|-5-----5---5---5-5-5-5--5-----5------

Stave 8:

E|-------------------------------------
B|-------------------------------------
G|-------------------------------------
D|----5----5-----------------5-----5---
A|-------------------------------------
E|-3-----3---3---3-3-3-3--3-----3------

Stave 9:

E|-----------------------------------------------------------
B|-----------------------------------------------------------
G|-----------------------------------------------------------
D|-----------------------------------------------------------
A|----------5---------5--------------------------------------
E|-8--8--8-----8-8-8-----10--10--10--10-10-10-10-10-10-10-10-

Stave 10:

E|------------------------------------------------------------
B|------------------------------------------------------------
G|------------------------------------------------------------
D|------------------------------------------------------------
A|----------8-8-8-8-------------------------------------------
E|-0--0--0----------7-7-7-7-7-0-0-0-0-0-0-0-0-8-8-8-8-7-7-7-7-

Stave 11:

E|---------------------------------------------------------------------------------
B|---------------------------------------------------------------------------------
G|---------------------------------------------------------------------------------
D|---------------------------------------------------------------------------------
A|---------------------------------------------------------------------------------
E|-8-8-8-8-8-8-8-8-8-8-8-8-8-8-8-8-10-10-10-10-10-10-10-10-10-10-10-10-10-10-10-10-

Stave 12:

E|-------------------------------------------------
B|-------------------------------------------------
G|-------------------------------------------------
D|-------------------------------------------------
A|-------------------------------------------------
E|-12-12-12-12-12-12-12-12-12-12-12-12-12-12-12-12-

Stave 13:

E|-------------------------------------------------
B|-------------------------------------------------
G|-------------------------------------------------
D|-------------------------------------------------
A|-------------------------------------------------
E|-10-10-10-10-10-10-10-10-10-10-10-10-10-10-10-10-

Stave 14:

E|---------------------------------------------------------------------------------
B|---------------------------------------------------------------------------------
G|---------------------------------------------------------------------------------
D|---------------------------------------------------------------------------------
A|---------------------------------------------------------------------------------
E|-8-8-8-8-8-8-8-8-8-8-8-8-8-8-8-8-10-10-10-10-10-10-10-10-10-10-10-10-10-10-10-10-

Stave 15:

E|-------------------------------------------------
B|-------------------------------------------------
G|-------------------------------------------------
D|-------------------------------------------------
A|-------------------------------------------------
E|-12-12-12-12-12-12-12-12-12-12-12-12-12-12-12-12-

Stave 16:

E|-------------------------------------------------
B|-------------------------------------------------
G|-------------------------------------------------
D|-------------------------------------------------
A|-------------------------------------------------
E|-15-15-15-15-15-15-15-15-15-15-15-15-15-15-15-15-

http://www.guitartabcreator.com
Guitar Tab Creator is intended to store guitar tab created through the tool. It currently does not support in-line text editing. Any text you place in here will be lost. If you need to comment on your tab, please use the "Tab Notes" section located below.