Sound will begin in 5 seconds

The Windwaker

01234567891011121314151617181920212223
E
B
G
D
A
E
B
0 1 2 3 4 5 6 7 8 9 10 11 12 13 14 15 16 17 18 19 20 21 22 23
Song Science #1: How Pros Use 6 Chords to Write Hit Songs
(/) Slide Up  (\) Slide Down  (h) Hammer On  (p) Pull Off  (b) Bend (r) Release (v) Vibrato

Stave 1:

Db|-------------------------------------------------------------------------------------
Ab|-------------------------------------------------------------------------------------
E |-------------------------------------------------------------------------------------
B |--------------------------------------------2--3--2--------------------------2--3--2-
Gb|-------------------------------------------------------------------------------------
B |-0--0--0--0-0-0-0-0--0---0-0-0-0-0-0-0--0------------3--3--3--3-3-3-3-3-3-3----------

Stave 2:

Db|----------------------------------------------------
Ab|----------------------------------------------------
E |----------------------------------------------------
B |----------------------------------------------------
Gb|----------------------------------------------------
B |-0--0-0--0-0--0--0-0-0--0--8--8-8--8-8--8--8-8-8--8-

Stave 3:

Db|----------------------------------------------------
Ab|----------------------------------------------------
E |----------------------------------------------------
B |----------------------------------------------------
Gb|----------------------------------------------------
B |-3--3-3--3-3--3--3-3-3--3--5--5-5--5-5--5--5-5-5--5-

Stave 4:

Db|-------------
Ab|-------------
E |-------------
B |-------------
Gb|-8-----7---3-
B |-------------

Stave 5:

Db|-----------------------------------------------------------------
Ab|-----------------------------------------------------------------
E |-----------------------------------------------------------------
B |-----------------------------------------------------------------
Gb|-----------------------------------------------------------------
B |-0-0-0-0-0-0-0-0-0-0-0-0-0-0-0-0-8-8-8-8-8-8-8-8-8-8-8-8-8-8-8-8-

Stave 6:

Db|-----------------------------------------------------------------
Ab|-----------------------------------------------------------------
E |-----------------------------------------------------------------
B |-----------------------------------------------------------------
Gb|-----------------------------------------------------------------
B |-3-3-3-3-3-3-3-3-3-3-3-3-3-3-3-3-5-5-5-5-5-5-5-5-5-5-5-5-5-5-5-5-

Stave 7:

Db|-------------------------------------------------
Ab|-------------------------------------------------
E |-------------------------------------------------
B |-------------------------------------------------
Gb|-------------------------------------------------
B |-0--0-0-0-0-0-0--0-0--0-0-0-0--0-0--0-0-0-0--0-0-

Stave 8:

Db|---------------------------------------------------------------------------
Ab|---------------------------------------------------------------------------
E |---------------------------------------------------------------------------
B |---------------------------------------------------------------------------
Gb|---------------------------------------------------------------------------
B |-0--0--0-0---0-0-0--0--0--0---0---0--0---0--0--0---0-0-0--0--0--0--0--0--0-

Stave 9:

Db|---------------------------------------------------------------------------
Ab|---------------------------------------------------------------------------
E |---------------------------------------------------------------------------
B |---------------------------------------------------------------------------
Gb|---------------------------------------------------------------------------
B |-1--1--1-1---1-1-1--1--1--1---1---1--1---1--1--1---1-1-1--1--1--1---1---1--

Stave 10:

Db|---------------------------------------------------------------------------
Ab|---------------------------------------------------------------------------
E |---------------------------------------------------------------------------
B |---------------------------------------------------------------------------
Gb|---------------------------------------------------------------------------
B |-0--0--0-0---0-0-0--0--0--0---0---0--0---0--0--0---0-0-0--0--0--1---1---1--

http://www.guitartabcreator.com
Guitar Tab Creator is intended to store guitar tab created through the tool. It currently does not support in-line text editing. Any text you place in here will be lost. If you need to comment on your tab, please use the "Tab Notes" section located below.