Sound will begin in 5 seconds

tremolos and shit

01234567891011121314151617181920212223
E
B
G
D
A
E
B
0 1 2 3 4 5 6 7 8 9 10 11 12 13 14 15 16 17 18 19 20 21 22 23
Song Science #1: How Pros Use 6 Chords to Write Hit Songs
(/) Slide Up  (\) Slide Down  (h) Hammer On  (p) Pull Off  (b) Bend (r) Release (v) Vibrato

Stave 1:

G|--------------------------------------------------------------------------------------------------
D|--------------------------------------------------------------------------------------------------
A|--------------------------------------------------------------------------------------------------
E|--0--0--0--0--0--0--0--0--0--0--0--0--0--0--0--0--0--0--0--0--0--0--0--0--0--0--0--0--0--0--0--0--

Stave 2:

G|------------------------------------------------------------------------------------------------------------------
D|------------------------------------------------------------------------------------------------------------------
A|------------------------------------------------------------------------------------------------------------------
E|--8--8--8--8--8--8--8--8--8--8--8--8--8--8--8--8--10--10--10--10--10--10--10--10--10--10--10--10--10--10--10--10--

Stave 3:

G|------------------------
D|--------------------10--
A|--8-----7---------------
E|--------------8---------

Stave 4:

G|------------------------------------------------------------------------------------
D|--------------------------------------------------------------------------10--------
A|--------------------------------------------------------------8-----7------------7--
E|--0-----0-----0--------0--0--0--0--0-----------0-----0------------------------------

Stave 5:

G|-------------------------------------------------------------------------------------
D|--------------------------------------------------------------------------10-----\3--
A|--------------------------------------------------------------8-----7----------------
E|--0-----0-----0--------0--0--0--0--0-----------0-----0-------------------------------

Stave 6:

G|------------------------------------------------------------------------------------
D|--------------------------------------------------------------------------------10--
A|--------------------------------------------------------------8-----7---------------
E|--3-----3-----3--------3--3-----3--3-----------3-----3--------------------8---------

Stave 7:

G|-----------------------------------------------------------------
D|-----------------------------------------------------------------
A|-----------------------------------------------------------------
E|--0-----------------------0-----0--------0-----------------0-----

Stave 8:

G|------------------------------------------------------------------------------------------
D|--------------------------------------------------------------------------------------10--
A|--------------------------------------------------------------------8-----7---------------
E|--0--------0-----------------------0-----0--------0-----------------------------8---------

Stave 9:

G|--------------------------------------------------------------------------------------10--
D|------------------------------------------------------------------------------------------
A|--------------------------------------------------------------------8-----7---------------
E|--0--------0-----------------------0-----0--------0-----------------------------8---------

Stave 10:

G|-----------------------------------------------------------------10-----------------10--
D|-----------------------------------------------------7-----8------------7-----8---------
A|----------------------------------------------------------------------------------------
E|--0-----0-----0--0--0--0-----0-----0-----0-----0----------------------------------------

Stave 11:

G|--------------------------------------------------------------------------------9h10p9-----
D|--------------------------------------------------------------------------8h10--------h10--
A|--------------------------------------------------------------------8h10-------------------
E|--0-----0-----0--0--0--0-----0-----0-----0--0--0--0-----0-----0----------------------------

Stave 12:

G|--------------------------------------------
D|--------------------------------------------
A|--------------------------------------------
E|--0-----0-----0--0--0--0-----0-----0-----0--

Stave 13:

G|--------------------------------------------------------------
D|--------------------------------------------------------------
A|--------------------------------------------------------------
E|--0-----------0-----0-----0-----0-----0-----0-----0-----0-----

Stave 14:

G|--------------------------------------------------------------
D|--------------------------------------------------------------
A|--------------------------------------------------------------
E|--8-----------5-----5-----5-----5-----5-----5-----5-----------

Stave 15:

G|--------------------------------------------------------------------------------------------------------
D|--------------------------------------------------------------------------------------------------------
A|--------------------------------------------------------------------------------------------------------
E|--0--------0--------0--------0--------0--------0--------0--------0--------0--------0--------0--------0--

Stave 16:

G|--------------------------------------------------------------------------------------------------------
D|--------------------------------------------------------------------------------------------------------
A|--------------------------------------------------------------------------------------------------------
E|--8--------8--------8--------8--------8--------8--------5--------5--------5--------5--------5--------5--

Stave 17:

G|-----------------------------------------------------------------------------------
D|-----------------------------------------------------------------------------------
A|-----------------------------------------------------------------------------------
E|--3--------3--------3--------3--------3--------3--------3--------3--------3--------

Stave 18:

G|-----------------------------------
D|-----------------------------------
A|-----------------------------------
E|--3-----3-----3-----3-----3-----3--

Stave 19:

G|--------------------------------------------------------------------------------------------
D|--------------------------------------------------------------------------------------------
A|--------------------------------------------------------------------------------------------
E|--10--------10--------10--------10--------10--------10--------10--------10--------10--------

Stave 20:

G|-----------------------------------------
D|-----------------------------------------
A|-----------------------------------------
E|--10-----10-----10-----10-----10-----10--

Stave 21:

G|------------------------------------------------------------------------------------------
D|--------------------------------------------------------------------------------------10--
A|--------------------------------------------------------------------8-----7---------------
E|--0--------0--------------------------0-----0--------0--------------------------8---------

Stave 22:

G|--------------------------------------------------------------------------------------------------------------------------
D|--------------------------------------------------------------------------------------------------------------------------
A|--------------------------------------------------------------------------------------------------------------------------
E|--0--------0--------------------------0-----0-----0-----0-----0-----0--0-----0--0-----0--0--0-----0--0--0-----0--0--0--0--

http://www.guitartabcreator.com
Guitar Tab Creator is intended to store guitar tab created through the tool. It currently does not support in-line text editing. Any text you place in here will be lost. If you need to comment on your tab, please use the "Tab Notes" section located below.