Sound will begin in 5 seconds

Newer Song

01234567891011121314151617181920212223
E
B
G
D
A
E
B
0 1 2 3 4 5 6 7 8 9 10 11 12 13 14 15 16 17 18 19 20 21 22 23
Song Science #1: How Pros Use 6 Chords to Write Hit Songs
(/) Slide Up  (\) Slide Down  (h) Hammer On  (p) Pull Off  (b) Bend (r) Release (v) Vibrato

Stave 1:

Db|-----------------------------------------------------------------------------------
B |-----------------------------------------------------------------------------------
Gb|-----------------------------------------------------------------------------------
B |--3--3--3-----3--3--3-----3--3--3--3-----3-----3--3-----3-----3--3-----3-----3--3--

Stave 2:

Db|-----------------------------------------------------------------------------------
B |-----------------------------------------------------------------------------------
Gb|-----------------------------------------------------------------------------------
B |--0--0--0-----0--0--0-----0--0--0--0-----0-----0--0-----0--0--0--0-----0-----0--0--

Stave 3:

Db|--------------------------------------------------------------------
B |--------------------------------------------------------------------
Gb|--------------------------------------------------------------------
B |--0--0--0--0-----0--0--0--0--0--0--0--0--0--0-----0--0--0--0--0--0--

Stave 4:

Db|--------------------------------------------------------------------
B |--------------------------------------------------------------------
Gb|--------------------------------------------------------------------
B |--3--3--3--3-----3--3--3--3--3--3--3--3--3--3-----3--3--3--3--3--3--

Stave 5:

Db|--------------------------------------------------------------
B |--------------------------------------------------------------
Gb|--------------------------------------------------------------
B |--8--8--8--8--8--8--8-----8--8--8--8--8--8--8-----8--8--8--8--

Stave 6:

Db|--------------------------------------------------------------
B |--------------------------------------------------------------
Gb|--------------------------------------------------------------
B |--3--3--3--3--3--3--3-----3--3--3--3--3--3--3--3--3--3--3--3--

Stave 7:

Db|--------------------------------------------------------------------------
B |--------------------------------------------------------------------------
Gb|--------------------------------------------------------------------------
B |--0--0--0--0--0-----0-----0--0-----0-----0--0-----0--0--0-----0--0--0--0--

Stave 8:

Db|--------------------------------------------------------------------------
B |--------------------------------------------------------------------------
Gb|--------------------------------------------------------------------------
B |--1--1--1--1--1-----1-----1--1-----1-----1--1-----1--1--1-----1--1--1--1--

Stave 9:

Db|--------------------------------------------------------------------
B |--------------------------------------------------------------------
Gb|--------------------------------------------------------------------
B |--3/8-----8--8--8--8-----3/8-----8--8--8--8-----3/8-----8--8--8--8--

Stave 10:

Db|--------------------------------------------------------------
B |--------------------------------------------------------------
Gb|--------------------------------------------------------------
B |--3-----0--0--0--0-----3-----0--0--0--0-----3--3--3--3--3--3--

http://www.guitartabcreator.com
Guitar Tab Creator is intended to store guitar tab created through the tool. It currently does not support in-line text editing. Any text you place in here will be lost. If you need to comment on your tab, please use the "Tab Notes" section located below.