Sound will begin in 5 seconds

New Song (Untitled)

01234567891011121314151617181920212223
E
B
G
D
A
E
B
0 1 2 3 4 5 6 7 8 9 10 11 12 13 14 15 16 17 18 19 20 21 22 23
Song Science #1: How Pros Use 6 Chords to Write Hit Songs
(/) Slide Up  (\) Slide Down  (h) Hammer On  (p) Pull Off  (b) Bend (r) Release (v) Vibrato

Stave 1:

E |-------------------------------------------------------------
B |-----------------------7-7-7-7-----------------------7-7-7-7-
Gb|---------------8-8-8-8-----------------------8-8-8-8---------
B |-0----0-0-0-----------------------0-0-0-0--------------------

Stave 2:

E |-------------------------------------------------------
B |-------------------------------------------------------
Gb|-----------5----8--------------------------------------
B |-8----5--------------0----0-0----0-0----0-0-0----0-0-0-

Stave 3:

E |---------------------------------------------------------
B |---------------------------------------------------------
Gb|-------------5----8--------------------------------------
B |-8-0-0-5-0-0-----------0----0-0----0-0----0-0-0----0-0-0-

Stave 4:

E |--------------------------------------------------------------------------
B |--------------------------------------------------------------------------
Gb|-----------5----8---------------------------------------------------------
B |-8----5--------------0----0-0----0-0----0-0-0----0-0-0----0-0----0-0----0-

Stave 5:

E |-------------------------------------
B |-------------------------------------
Gb|-------------------------------------
B |-0-0-0-0-0-0-0-0-0-0-0-0-0-0-0-------

Stave 6:

E |-----------------------------------
B |-----------------------------------
Gb|-----------------------------------
B |-12----12----7----7----8-8-8-8-8-8-

Stave 7:

E |-----------------------------9-10-9----------
B |------------------------------------10-------
Gb|---------------------------------------12/13-
B |-12----12----7----7----8-8-8-----------------

Stave 8:

E |-------------------------------------
B |-------------------------------------
Gb|-------------------------------------
B |-12----12----7----7----3-3-3-3-3-3-3-

Stave 9:

E |---------------
B |-8-7------10---
Gb|-----10-8----8-
B |---------------

Stave 10:

E |-----------------------------------
B |-----------------------------------
Gb|-----------------------------------
B |-8-8-8-8-8----8-8----8-8----8----8-

Stave 11:

E |----------------------------------------------
B |----------------------------------------------
Gb|----------------------------------------------
B |-10-10-10-10-10----10----10----10----10----10-

Stave 12:

E |---------------------------
B |-------------------------7-
Gb|-------------------3/7-----
B |-0-0-0----0-0-0--------8---

Stave 13:

E |----------------------------------
B |----------------------------------
Gb|---------------------------2----0-
B |-3-3-3-3-3----3-3-3----3-3--------

Stave 14:

E |-----------------------------------------------------------------
B |-----------------------------------------------------------------
Gb|-------------------------8-8-8-8-7-7-7-7-7-7-7-7-3-3-3-3-3-3-3-3-
B |-8-8-8-8-8-8-8-8-8-8-8-8-----------------------------------------

Stave 15:

E |-----------------------------------------------------------------
B |-7-7-7-7-7-7-7-7-7-7-7-7-7-7-7-7-8-8-8-8-8-8-7-7-7-7-7-7-3-3-3-3-
Gb|-----------------------------------------------------------------
B |-----------------------------------------------------------------

Stave 16:

E |-----------------------------------------------------------------
B |-----------------------------------------------------------------
Gb|-----------------5-5-5-5-5-5-5-5---------------------------------
B |-3-3-3-3-3-3-3-3-----------------0-0-0-0-0-0-5-5-5-5-5-5-7-7-7-7-

Stave 17:

E |--------------------------------------------------------------------------------
B |--------------------------------------------------------------------------------
Gb|--------------------------------------------------------------------------------
B |-0----0-0-0-0----0----0----0----0----0----0-0-0-0----0----0----0----0----0----0-

Stave 18:

E |----------------------------------------------------------
B |----------------------------------------------------------
Gb|----------------------------------------------------------
B |-0----0-0----0-0----0-0-0-0----0----0----0----0-0-0-0-0-0-

Stave 19:

E |--------------------------------------------
B |--------------------------------------------
Gb|--------------------------------------------
B |-1-1-1----1-1-1----1----1----1-1-1----1-1-1-

Stave 20:

E |--------------------------------------------
B |--------------------------------------------
Gb|--------------------------------------------
B |-1-1-1----1-1-1----0----0----5-5-5----8-8-8-

Stave 21:

E |-------------------------------------------------------------------------
B |-------------------------------------------------------------------------
Gb|-------------------------------------------------------------------------
B |-0-0-0----0-0-0-------0-0-0----0-0-0-------0-0-0----0-0-0----0-0-0-0-0-0-

Stave 22:

E |-------------------------------------------------------------
B |-------------------------------------------------------------
Gb|-------------------------------------------------------------
B |-12-12-12-12-12----0----0----12----0----8-8-8----7----0----7-

Stave 23:

E |-----------------------------------------------------------
B |-----------------------------------------------------------
Gb|-----------------12---------------------------------8------
B |-8-8-8-8-8-8-8-8-------7----3----0----8-8-8----7---------7-

Stave 24:

E |-------------------------
B |-------------------------
Gb|-------------------------
B |-1-1-1----1-1-1----1-1-1-

Stave 25:

E |-------------------------------------------
B |-------------------------------------------
Gb|-------------------------------------------
B |-1-1-1----1-1-1----0-0-0-0-0-0-0-0-0-0-0-0-

Stave 26:

E |------------------------------------------------------------------
B |------------------------------------------------------------------
Gb|------------------------------------------------------------------
B |-12-12-12-12-12----5----7----5----8-8-8-8-8-8-8-8-8-8-8-8-8-8-8-8-

http://www.guitartabcreator.com
Guitar Tab Creator is intended to store guitar tab created through the tool. It currently does not support in-line text editing. Any text you place in here will be lost. If you need to comment on your tab, please use the "Tab Notes" section located below.