Sound will begin in 5 seconds

Intro

01234567891011121314151617181920212223
E
B
G
D
A
E
B
0 1 2 3 4 5 6 7 8 9 10 11 12 13 14 15 16 17 18 19 20 21 22 23
Song Science #1: How Pros Use 6 Chords to Write Hit Songs
(/) Slide Up  (\) Slide Down  (h) Hammer On  (p) Pull Off  (b) Bend (r) Release (v) Vibrato

Stave 1:

G|---------------------------------------------------------------------
D|---------------------------------------------------------------------
A|----------------------------6----7----------------------------6----7-
E|-0-0-0----0-0-0----0-0-0--------------0-------0-------0--------------

Stave 2:

G|--------------------------------------------------------------------
D|--------------------------------------------------------------------
A|----------------------------------8-8-8-----------------8---------7-
E|-0-------0-------0----------------------10----5----7---------3------

Stave 3:

G|------------------------------------------------------------------5h7-
D|--------------------------------------------------------------5h8-----
A|----------------------------6----7------------------------------------
E|-0-0-0----0-0-0----0-0-0--------------0-------0-------0---------------

Stave 4:

G|-----------------------------------------------------------------
D|-----------------------------------------------------------------
A|----------------------------------7h8p7----------12------------8-
E|-0-------0-------0----------------------8\7/8----------7-7-7-7---

Stave 5:

G|---------------------------------------------------------------------
D|-12----12--------------12----12--------------------------------------
A|---------------------------------------------------------------------
E|-------------0----0----------------0----0----12-12-12-12-12-12-12-12-

Stave 6:

G|---------------------------------------------14-14-14-14-14-14-14-14-
D|-12----12--------------12----12--------------------------------------
A|---------------------------------------------------------------------
E|-------------0----0----------------0----0----------------------------

Stave 7:

G|-----------------------------------------------------------
D|-----------------------------------------------------------
A|-----------------------------------------------------------
E|-0-------0-------0----0----------0-0-0-0----0----0----0----

Stave 8:

G|----------------------------------------------------------
D|------------------------------------7----/10--------------
A|-------------------------5----/8----------------10----/12-
E|-0-0-0-0-0----------0-------------------------------------

Stave 9:

G|-----------------------------------------------------------
D|-----------------------------------------------------------
A|-----------------------------------------------------------
E|-3-------3-------3----3----------3-3-3-3----3----3----3----

Stave 10:

G|---------------------------------------------------
D|-----------------------------------5h7p5---5-------
A|-----------------------------------------8---8p7h8-
E|-3-3-3-3-3----------3----3----3--------------------

Stave 11:

G|-----------------------------------------------------------
D|-----------------------------------------------------------
A|-----------------------------------------------------------
E|-0-------0-------0----0----------0-0-0-0----0----0----0----

Stave 12:

G|-----------------------------------------------------
D|-------------------------5-------5-------5----5----3-
A|-----------------------------------------------------
E|-0-0-0-0-0----------0--------------------------------

Stave 13:

G|--------------------------------------------------------
D|--------------------------------------------------------
A|--------------------------------------------------------
E|-3-------3-------3----3----------3-3-3-3----3----3----3-

Stave 14:

G|---------------------------------------------------------
D|---------------------------------------------------------
A|---------------------------------------------------------
E|-3-3-3-3-3----------3----3-3-3-3-3-3-3-3-3-3-3-3-3-3-3-3-

Stave 15:

G|-----------------------------------------
D|-----------------------------------------
A|-----------------------------------------
E|-0----0----0----0----0----0----0----0----

Stave 16:

G|-----------------------------------------
D|-----------------------------------------
A|-----------------------------------------
E|-7----7----7----7----7----7----7----7----

Stave 17:

G|-----------------------------------------
D|-----------------------------------------
A|-----------------------------------------
E|-3----3----3----3----3----3----3----3----

Stave 18:

G|-------------------------------------------------
D|-------------------------------------------------
A|-------------------------------------------------
E|-10----10----10----10----10----10----10----10----

http://www.guitartabcreator.com
Guitar Tab Creator is intended to store guitar tab created through the tool. It currently does not support in-line text editing. Any text you place in here will be lost. If you need to comment on your tab, please use the "Tab Notes" section located below.