Sound will begin in 5 seconds

Dementia

01234567891011121314151617181920212223
E
B
G
D
A
E
B
0 1 2 3 4 5 6 7 8 9 10 11 12 13 14 15 16 17 18 19 20 21 22 23
Song Science #1: How Pros Use 6 Chords to Write Hit Songs
(/) Slide Up  (\) Slide Down  (h) Hammer On  (p) Pull Off  (b) Bend (r) Release (v) Vibrato

Stave 1:

E|--------------------9-----9-----9-----9------------------------9-----/10-----\9----------------
B|--------------------------------------------7-----8-----10--------------------------7-----/10--
E|-----------------------------------------------------------------------------------------------
B|--0--------0-----------------------------------------------------------------------------------

Stave 2:

E|--------------------5-----5-----5-----5-----------------------------------------------------
B|--------------------------------------------------------------------------------------------
E|--------------------------------------------------------------------5-----/8----------------
B|--3--------3--------------------------------3--3--3--3--3-----3------------------7-----/10--

Stave 3:

E|-----------------10--------------------------------------------------
B|---------------------------------------------------------------------
E|---------------------------------------------------------------------
B|--0---------------------0-----------0-----0-----0--0--0--0--0-----0--

Stave 4:

E|-----------------9--------------------------------9-----9-----9-----10--
B|------------------------------------------------------------------------
E|------------------------------------------------------------------------
B|--0--------0-----------0-----0--------0---------------------------------

Stave 5:

E|--------------------------------------------------------------------9-----10-----10-----10-----10--
B|--------------------------------------------------------------7------------------------------------
E|--------------------------------------------------------5------------------------------------------
B|--0--0--0-----0--0--0-----0-----0-----0-----------0------------------------------------------------

Stave 6:

E|--9-----9-----------------------------9-----9-----------------------------9-----9-----9-----10--
B|------------------------------------------------------------------------------------------------
E|------------------------------------------------------------------------------------------------
B|--------------0-----0-----0-----------------------0-----0-----0---------------------------------

Stave 7:

E|--5-----5--------------------------5-----5--------------------------5-----2---------------
B|--------------------------------------------------------------------------------3-----/7--
E|------------------------------------------------------------------------------------------
B|--------------3-----3--------------------------3-----3------------------------------------

Stave 8:

E|-----------------------10-----10-----10-----10-----------------------------10--------------
B|-------------------------------------------------------------------------------------------
E|-------------------------------------------------------------------------------------------
B|--0--0--0--0-----0---------------------------------------0--0--0-----0------------0-----0--

Stave 9:

E|--------------------------------------------------------------------------------
B|--------------------------------------------------------------------------------
E|--------------------------------------------------------------------------------
B|--0--------0--------0-----0-----0--------0-----12\0--------0-----0-----0-----0--

Stave 10:

E|-----------------------------------------------10--------------------------------
B|---------------------------------------------------------------------------------
E|---------------------------------------------------------------------------------
B|--0--------0--------0-----0-----0--------0---------------0--0--0--0--0--0--0--0--

Stave 11:

E|--------------------------------------------------------------------------------------------
B|--------------------------------------------------------------------------------------------
E|--------------------------------------------------------------------------------------------
B|--0-----0-----0--0-----0--0-----0-----0-----0-----3-----3--3-----3--3-----3-----3--3--3--3--

Stave 12:

E|--------------------------------------------------------------------------------------------
B|--------------------------------------------------------------------------------------------
E|--------------------------------------------------------------------------------------------
B|--8-----8-----8--8-----8--8-----8-----8-----8-----7-----7--7-----7--7-----7-----7--7--7--7--

Stave 13:

E|--------------------------------------------------------------------------------------------------
B|--------------------------------------------------------------------------------------------------
E|--------------------------------------------------------------------------------------------------
B|--0-----0-----0-----0-----0-----0--------0-----0-----0-----0-----0-----0-----0-----0-----0-----0--

Stave 14:

E|--------------------------------------------------------------------------------------------------
B|--------------------------------------------------------------------------------------------------
E|--------------------------------------------------------------------------------------------------
B|--3-----3-----3-----3-----3-----3--------3-----3-----3-----3-----3-----3-----3-----3-----3-----3--

Stave 15:

E|-----------------------------------------------------------------------------------------------
B|-----------------------------------------------------------------------------------------------
E|-----------------------------------------------------------------------------------------------
B|--8-----8-----8-----8-----8-----8-----8-----8-----8-----8-----8-----8-----8-----8-----8-----8--

Stave 16:

E|--------------------------------------------------------------------------------------------
B|--------------------------------------------------------------------------------------------
E|--------------------------------------------------------------------------------------------
B|--7-----7-----7-----7-----7--------7-----7-----7-----7-----7-----7-----7-----7-----7-----7--

Stave 17:

E|--9-----9-----------------------------9-----9-----------------------------9-----9-----9-----10--
B|------------------------------------------------------------------------------------------------
E|------------------------------------------------------------------------------------------------
B|--------------0-----0-----0-----------------------0-----0-----0---------------------------------

Stave 18:

E|--5-----5--------------------------5-----5-----7--------8--------9--------12--
B|------------------------------------------------------------------------------
E|------------------------------------------------------------------------------
B|--------------3-----3---------------------------------------------------------

http://www.guitartabcreator.com
Guitar Tab Creator is intended to store guitar tab created through the tool. It currently does not support in-line text editing. Any text you place in here will be lost. If you need to comment on your tab, please use the "Tab Notes" section located below.