Sound will begin in 5 seconds

clear waters

01234567891011121314151617181920212223
E
B
G
D
A
E
B
0 1 2 3 4 5 6 7 8 9 10 11 12 13 14 15 16 17 18 19 20 21 22 23
Song Science #1: How Pros Use 6 Chords to Write Hit Songs
(/) Slide Up  (\) Slide Down  (h) Hammer On  (p) Pull Off  (b) Bend (r) Release (v) Vibrato

Stave 1:

G|---------------------------------------------------------------------------------
D|---------------------------------------------------------------------------------
A|---------------------------------------------------------------------------------
E|-0----0----0----0----0----0----0----0----0----0----0----0----0----0----0----0----

Stave 2:

G|---------------------------------------------------------------------------------
D|---------------------------------------------------------------------------------
A|---------------------------------------------------------------------------------
E|-8----8----8----8----8----8----8----8----8----8----8----8----8----8----8----8----

Stave 3:

G|---------------------------------------------------------------------------------
D|---------------------------------------------------------------------------------
A|---------------------------------------------------------------------------------
E|-3----3----3----3----3----3----3----3----3----3----3----3----3----3----3----3----

Stave 4:

G|---------------------------------------------------------------------------------
D|---------------------------------------------------------------------------------
A|---------------------------------------------------------------------------------
E|-5----5----5----5----5----5----5----5----5----5----5----5----5----5----5----5----

Stave 5:

G|------------------------------------5--------------5---------5---------5---------
D|---------------------------------------------------------------------------------
A|---------------------------------------------------------------------------------
E|-0----0----0----0----0----0----0---------3----3---------3---------3---------3----

Stave 6:

G|---------------------------------------------------------------------------------
D|-----------------------------------------7--------------7---------7--------------
A|---------------------------------------------------------------------------------
E|-5----5----5----5----5----5----5----5---------5----5---------5---------5----5----

Stave 7:

G|---------------------------------------------------7----9----7----------7----------
D|------------------------------------------------------------------10---------10----
A|-----------------------------------------------------------------------------------
E|-0----0----0----0----0----0----0----0----0----0------------------------------------

Stave 8:

G|---------------------------------------------------------------------------------
D|---------------------------------------------------------------------------------
A|---------------------------------------------------------------------------------
E|-8----8----8----8----8----8----8----8----8----8----8----8----8----8----8----8----

Stave 9:

G|-----------------------------------------------------------
D|-----------------------------------------------------------
A|-------------8-----------------------8----7----7----7----8-
E|-0-------0-0------0----0-------0-0-0-----------------------

Stave 10:

G|-----------------------------------------------------------
D|-----------------------------------------------------------
A|-------------8-----------------------8----7----7----7----8-
E|-8-------8-8------8----8-------8-8-8-----------------------

Stave 11:

G|------------------------------------------------------------
D|------------------------------------------------------------
A|-------------8-----------------------8----7----7----7----10-
E|-3-------3-3------3----3-------3-3-3------------------------

Stave 12:

G|------------------------------------------------------------
D|-----------------------------------------5---------5----/10-
A|----------8-------------------------8---------8-------------
E|-7----7-7---------7----7-------7----------------------------

Stave 13:

G|------------------------------------------------------------------------------
D|------------------------------------------------------------------------------
A|------------------------------------------------------------------------------
E|-0----0----0----0----0----0----0----0----0----0----0----0----0----0----0----0-

Stave 14:

G|------------------------------------------------------------------------------
D|------------------------------------------------------------------------------
A|------------------------------------------------------------------------------
E|-8----8----8----8----8----8----8----8----8----8----8----8----8----8----8----8-

Stave 15:

G|------------------------------------------------------------------------------
D|------------------------------------------------------------------------------
A|------------------------------------------------------------------------------
E|-3----3----3----3----3----3----3----3----3----3----3----3----3----3----3----3-

Stave 16:

G|-----------------------------------------------------------------------7----/12-
D|--------------------------------------------------------7----5----7-------------
A|-------------------------------5----7----8----7----8----------------------------
E|-5----5----5----5----5----5-----------------------------------------------------

Stave 17:

G|-------------------------------------------------------------------------------
D|-----------7---------7--------------8---------7-------------------------7------
A|-------------------------------------------------------------10----------------
E|-0----0---------0---------0----0---------0---------0----0----------0---------0-

Stave 18:

G|--------------------------------------------------------------------------------
D|-------------------------------------------------------------8----10----8-------
A|-----------------------------------------------------------------------------12-
E|-8----8----8----8----8----8----8----8----8----8----8----8-----------------------

Stave 19:

G|------------------------------------------------------------------------------
D|------------------------------------------------------------------------------
A|------------------------------------------------------------------------------
E|-3----3----3----3----3----3----3----3----3----3----3----3----3----3----3----3-

Stave 20:

G|------------------------------------------------------------------------------
D|-----------------------------------------------------------------------8----7-
A|-------------------------------------------------------------8----7-----------
E|-5----5----5----5----5----5----5----5----5----5----5----5---------------------

http://www.guitartabcreator.com
Guitar Tab Creator is intended to store guitar tab created through the tool. It currently does not support in-line text editing. Any text you place in here will be lost. If you need to comment on your tab, please use the "Tab Notes" section located below.