Sound will begin in 5 seconds

Ambient New Song (Guitar)

Chords
01234567891011121314151617181920212223
E
B
G
D
A
E
B
0 1 2 3 4 5 6 7 8 9 10 11 12 13 14 15 16 17 18 19 20 21 22 23
Song Science #1: How Pros Use 6 Chords to Write Hit Songs
(/) Slide Up  (\) Slide Down  (h) Hammer On  (p) Pull Off  (b) Bend (r) Release (v) Vibrato

Stave 1:

Db|---------------------------------------------------------------
Ab|---------------------------------------------------------------
E |---------------------------------------------------------------
B |---------------------------------------------------------------
Gb|---------------------------------------------------------------
B |-0----0-0----0-0----0----0----0----------0----0----0----0----0-

Stave 2:

Db|--------------------------------------------------
Ab|--------------------------------------------------
E |--------------------------------------------------
B |--------------------------------------------------
Gb|--------------------------------------------------
B |-0-0-0-0-0----0----0----0-------------0-0-0-0-3b3-

Stave 3:

Db|--------------------------------------------------------
Ab|--------------------------------------------------------
E |--------------------------------------------------------
B |--------------------------------------------------------
Gb|-5------------------------------------------3-----------
B |------0-0----0-0-0-0----0----0----0----0---------5----3-

Stave 4:

Db|------------------------------------------------------------
Ab|------------------------------------------------------------
E |------------------------------------------------------------
B |------------------------------------------------------------
Gb|-------------7------------------------------3---------------
B |-3----3-3---------3-------5-5-5----5-5-5---------3-3----3-3-

Stave 5:

Db|--------------------------------------------------
Ab|--------------------------------------------------
E |-----------------------------------------------14-
B |-----------------------------------------------12-
Gb|-----------------------------------------------12-
B |-0----0-0----0-0-0-0----0----0-0----0-0-0-0----0--

Stave 6:

Db|---------------------------------------------------------
Ab|---------------------------------------------------------
E |---------------------------------------------------------
B |--------------------------------------------------7------
Gb|-------------------------------------------------------5-
B |-0----0-0----0-0-0-0-------12\3----0----0----3-----------

Stave 7:

Db|---------------------------------------------------------------
Ab|---------------------------------------------------------------
E |---------------------------------------------------------------
B |---------------------------------------------------------------
Gb|---------------------------------------------------------------
B |-0----0-0----0-0-0-0-------12\3----0----0----0-0----0-0----0-0-

Stave 8:

Db|--------------------------------------------------------------------
Ab|--------------------------------------------------------------------
E |------14---------14--------------14---------14--------------14------
B |------12---------12--------------12---------12--------------12------
Gb|-0----12----0----12----0-0-0-0-0-12----0----12----0----0----12----0-
B |-0----0-----0----0-----0-0-0-0-0-0-----0----0-----0----0----0-----0-

Stave 9:

Db|------------------------------------------------------------------
Ab|------5---------5--------------5---------5-----------------6------
E |------5---------5--------------5---------5-----------------5------
B |------3---------3--------------3---------3-----------------3------
Gb|-3----3----3----3----3-3-3-3-3-3----3----3-------3----3----3----3-
B |-3----3----3----3----3-3-3-3-3-3----3----3-------3----3----3----3-

Stave 10:

Db|---------------
Ab|---------------
E |-14---------14-
B |-12---------12-
Gb|-12----0----12-
B |-0-----0----0--

Stave 11:

Db|-------------------------------------------
Ab|-------------------------------------------
E |-------------------------------------------
B |-0-0-0-0-0-0-0-0-0----0----0----0----0-0-0-
Gb|-0-0-0-0-0-0-0-0-0----0----0----0----0-0-0-
B |-0-0-0-0-0-0-0-0-0----0----0----0----0-0-0-

Stave 12:

Db|---------------------------------------------------
Ab|---------------------------------------------------
E |---------------------------------------------------
B |-3-3-3----3-3-3----5-5-5-5-5----5-5-5-5-5----5-5-5-
Gb|-3-3-3----3-3-3----5-5-5-5-5----5-5-5-5-5----5-5-5-
B |-3-3-3----3-3-3----5-5-5-5-5----5-5-5-5-5----5-5-5-

Stave 13:

Db|------------------------------------------------------
Ab|------------------------------------------------------
E |------------------------------------------------------
B |------------------------------------------------------
Gb|-0----0----0----0----0----0----------0----0----0----0-
B |-0----0----0----0----0----0----------0----0----0----0-

Stave 14:

Db|-x-----------------------------------------------------------------
Ab|-x-----------------------------------------------------------------
E |-x-----------------------------------------------------------------
B |-x-----------------------------------------------------------------
Gb|-x-------0----0----12----0----0----0----5----5----5----4----4----4-
B |-x-------0----0----12----0----0----0----8----8----8----7----7----7-

Stave 15:

Db|-x--------------------------------------------------------------------
Ab|-x--------------------------------------------------------------------
E |-x--------------------------------------------------------------------
B |-x-----------------------------------------------------12----12----12-
Gb|-x-------0----0----12----0----0----0----5----5----5----10----10----10-
B |-x-------0----0----12----0----0----0----8----8----8----10----10----10-

Stave 16:

Db|------------------------------------------------------------
Ab|------------------------------------------------------------
E |------------------------------------------------------------
B |------------------------------------------------------------
Gb|------------------------------------------------------------
B |-0----0-0----0-0----0----0----0-------0----0----0----0----0-

Stave 17:

Db|---------------------------------------------------
Ab|---------------------------------------------------
E |---------------------------------------------------
B |---------------------------------------------------
Gb|---------------------------------------------------
B |-0-0-0-0-0----0----0----0----------0-0-0-0-2-------

Stave 18:

Db|---------------------------------------------------------------
Ab|---------------------------------------------------------------
E |---------------------------------------------------------------
B |---------------------------------------------------------------
Gb|---------------------------------------------------------------
B |-3----3-3----3-3----3----3----3----------3----3----3----3----3-

Stave 19:

Db|-------------------------------------------------------
Ab|-------------------------------------------------------
E |-------------------------------------------------------
B |-------------------------------------------------------
Gb|-------------------------------------------------------
B |-5-5-5-5-5----5----5----5----------7-7-7-7-10-10-10-10-

http://www.guitartabcreator.com
Guitar Tab Creator is intended to store guitar tab created through the tool. It currently does not support in-line text editing. Any text you place in here will be lost. If you need to comment on your tab, please use the "Tab Notes" section located below.