Sound will begin in 5 seconds

THE END

Chords
01234567891011121314151617181920212223
E
B
G
D
A
E
B
0 1 2 3 4 5 6 7 8 9 10 11 12 13 14 15 16 17 18 19 20 21 22 23
(/) Slide Up  (\) Slide Down  (h) Hammer On  (p) Pull Off  (b) Bend (r) Release (v) Vibrato

Lead 1

E|--7--6--4/11--19\11/14------------
B|------------------------19\11/14--
G|----------------------------------
D|----------------------------------
A|----------------------------------
E|----------------------------------

Lead 2

E|-------------------12-----12--11-------------
B|--14--16--12--7/9------9----------9--12--11--
G|---------------------------------------------
D|---------------------------------------------
A|---------------------------------------------
E|---------------------------------------------

Lead 3

E|------------------2--4------2--4--23----------------
B|--14--16--19--21--------21------------21--2--4--23--
G|----------------------------------------------------
D|----------------------------------------------------
A|----------------------------------------------------
E|----------------------------------------------------

Verse 1 Pt.1

E|--------5--5--5-----------------------------------------------------
B|--------5--5--5-----------------------------------------------------
G|--------5--5--5-----------------------------------------------------
D|--------5--5--5--------------2-----------------------------5--5--5--
A|--------------------------------------------------------------------
E|--4--4-----------4--4-----4-----4--4--4--4--4--4--2--2--2-----------

Verse 1 Pt.2

E|-------------------------------------------------------------------------
B|-------------------------------------------------------------------------
G|---------------------------------------------------------------------11--
D|--------11------------------7--------11--------------------------11------
A|------------9\7--------2/4---------------9\7-------11-----11/12----------
E|--0--0-----------0--0----------0--0-----------7/9------9-----------------

Verse 2

E|--0---------------0--0--
B|--0---------------0--0--
G|--6---------------6--4--
D|--4---------------4--2--
A|--4--6--7--11--0--5--2--
E|--4--6--7--11--0--0--2--

Middle Big Riff

E|--------------------------------------------------------------------------------------------------------
B|--------------------------------------------------------------------------------------------------------
G|--------------------------------------------------------------------------------------------------------
D|-----------2--------------2-----------------------5--5--5-----------------------------------------------
A|--------------------------------------------------------------------------------------------------------
E|-----4--4-----4-----4--4-----4-----4--4--2--2--2--------------0--0--0--0-----0--0--0--0-----2--2--2--2--

End Riff Pt.1

E|---------------------------------------------------------------------------------------
B|---------------------------------------------------------------------------------------
G|---------------------------------------------------------------------------------------
D|-------------------------------------6----------7-----11----------------11-------------
A|---------------------------------------------------------------------------------------
E|--4--4-----4--4--4-----4--4-----6/7-----7--7/9-----9------11\9\0--0---------11\9\0--0--

End Riff Pt.2

E|--------------------------------
B|--------------------------------
G|--11--------------9-------------
D|------11\9-----------11--9------
A|----------------------------11--
E|------------0-------------------

http://www.guitartabcreator.com
Guitar Tab Creator is intended to store guitar tab created through the tool. It currently does not support in-line text editing. Any text you place in here will be lost. If you need to comment on your tab, please use the "Tab Notes" section located below.