Sound will begin in 5 seconds

It's cool

01234567891011121314151617181920212223
E
B
G
D
A
E
B
0 1 2 3 4 5 6 7 8 9 10 11 12 13 14 15 16 17 18 19 20 21 22 23
Song Science #1: How Pros Use 6 Chords to Write Hit Songs
(/) Slide Up  (\) Slide Down  (h) Hammer On  (p) Pull Off  (b) Bend (r) Release (v) Vibrato

Stave 1:

E|-0-0-0-0-0-0-0-0---------------0-0-0-0-0-0-0-0-0-0-0-0-0-5----0-0-0-7-7-7-5-5-
B|-0-0-0-0-0-0-0-0-2-2-2-2-2-2-2-0-0-0-0-0-0-0-0-0-0-5p0-0-0----0-0-0-0-0-0-0-0-
G|-1-1-1-1-1-1-1-1-2-2-2-2-2-2-2-4-4-4-4-4-4-4-6-6-6-6-6-6-6----6-6-6-6-6-6-6-6-
D|-2-2-2-2-2-2-2-2-2-2-2-2-2-2-2-6-6-6-6-6-6-6-7-7-7-7-7-7-7----7-7-7-7-7-7-7-7-
A|-2-2-2-2-2-2-2-2-4-4-4-4-4-0-0-6-6-6-6-6-6-6-7-7-7-7-7-7-7----7-7-7-7-7-7-7-7-
E|-0-0-0-0-0-0-0-0-----------------------------0-0-0-0-0-0-0----0-0-0-0-0-0-0-0-

Stave 2:

E|-0-0-0-0-0-0-0-0-0-0-0-7-7-7-7-7-0-0-0-0-0-0-0-0-0-0-0-9-9-9-7-7-
B|-0-0-0-0-0-0-0-0-5-5-5-5-5-5-5-5-0-0-0-0-0-0-0-0-7-7-7-7-7-7-7-7-
G|-1-1-1-1-1-1-1-1-6-6-6-6-6-6-6-6-1-1-1-1-1-1-1-1-6-6-6-6-6-6-6-6-
D|-2-2-2-2-2-2-2-2-6-6-6-6-6-6-6-6-2-2-2-2-2-2-2-2-----------------
A|-2-2-2-2-2-2-2-2-4-4-4-4-4-4-4-4-2-2-2-2-2-2-2-2-5-5-5-5-5-5-5-5-
E|-0-0-0-0-0-0-0-0-----------------0-0-0-0-0-0-0-0-----------------

Stave 3:

E|-------------------------------0-
B|-5--5------------9-------------0-
G|-4--4-6--6-8-----8--8--9-9-9-8---
D|------5--5-7-----7--7--7-7-7-7-9-
A|-4--4----------------------------
E|------5--5-7-----7--7--7-7-7-7-7-

http://www.guitartabcreator.com
Guitar Tab Creator is intended to store guitar tab created through the tool. It currently does not support in-line text editing. Any text you place in here will be lost. If you need to comment on your tab, please use the "Tab Notes" section located below.