Oh, Mexico - Jeremy Zucker

01234567891011121314151617181920212223
E
B
G
D
A
E
B
0 1 2 3 4 5 6 7 8 9 10 11 12 13 14 15 16 17 18 19 20 21 22 23
(/) Slide Up  (\) Slide Down  (h) Hammer On  (p) Pull Off  (b) Bend (r) Release (v) Vibrato

Stave 1:

E|-------2-----------------2-----------3-----3-----------0-----0----------------0-----------
B|----------------------------3-----------------3-----------------1----------------1--------
G|--1/2-----2--0--------2--------2--------0--------0--------0--------0-------0--------0-----
D|-------------------0-----------------2--------------------------------0h2-----------------
A|-------------------------------------------------------3----------------------------------
E|------------------------------------------------------------------------------------------

Stave 2:

E|--------2-----------0-----0-----------------------------------------------------
B|-----------3-----------------1-----0-----------0--------0-----------1--------1--
G|-----2--------2--------0--------0-----------------0--------------------0--------
D|--0-----------------------------------------0--------0-----------2--------2-----
A|--------------------3-----------------------------------------0-----------------
E|-----------------------------------------3--------------------------------------

Stave 3:

E|------------------------------------------------------
B|----------0--------0-----------1--------1-------------
G|-------------0--------------------0-------------------
D|-------0--------0-----------2--------2--------0-2-----
A|--0h2--------------------3--------------------3-------
E|------------------------------------------------------

							http://www.guitartabcreator.co
Chords

Instruments
{"strings":[[[".",".",".",2,".",".","_",".",".",2,".",".","_",3,".",3,".",".","_",0,".",0,".",".",".",".",".",".",0,".",".","_"],[".",".",".",".",".",".","_",".",".",".",3,".","_",".",".",".",3,".","_",".",".",".",1,".",".",".",".",".",".",1,".","_"],[1,"/",2,".",2,0,"_",".",2,".",".",2,"_",".",0,".",".",0,"_",".",0,".",".",0,".",".",".",0,".",".",0,"_"],[".",".",".",".",".",".","_",0,".",".",".",".","_",2,".",".",".",".","_",".",".",".",".",".",0,"h",2,".",".",".",".","_"],[".",".",".",".",".",".","_",".",".",".",".",".","_",".",".",".",".",".","_",3,".",".",".",".",".",".",".",".",".",".",".","_"],[".",".",".",".",".",".","_",".",".",".",".",".","_",".",".",".",".",".","_",".",".",".",".",".",".",".",".",".",".",".",".","_"]],[[".",".",2,".",".","_",0,".",0,".",".",".","_",".",".",".",".",".",".","_",".",".",".",".",".","."],[".",".",".",3,".","_",".",".",".",1,".",0,"_",".",".",0,".",".",0,"_",".",".",1,".",".",1],[".",2,".",".",2,"_",".",0,".",".",0,".","_",".",".",".",0,".",".","_",".",".",".",0,".","."],[0,".",".",".",".","_",".",".",".",".",".",".","_",".",0,".",".",0,".","_",".",2,".",".",2,"."],[".",".",".",".",".","_",3,".",".",".",".",".","_",".",".",".",".",".",".","_",0,".",".",".",".","."],[".",".",".",".",".","_",".",".",".",".",".",".","_",3,".",".",".",".",".","_",".",".",".",".",".","."]],[[".",".",".",".",".",".",".",".","_",".",".",".",".",".",".","_",".",".","_"],[".",".",".",".",0,".",".",0,"_",".",".",1,".",".",1,"_",".",".","_"],[".",".",".",".",".",0,".",".","_",".",".",".",0,".",".","_",".",".","_"],[".",".",".",0,".",".",0,".","_",".",2,".",".",2,".","_",0,2,"_"],[0,"h",2,".",".",".",".",".","_",3,".",".",".",".",".","_",3,".","_"],[".",".",".",".",".",".",".",".","_",".",".",".",".",".",".","_",".",".","_"]]],"numberofstrings":6,"notes":["E","B","G","D","A","E","B"],"capo":0,"stringnotes":["E4","B3","G3","D3","A2","E2"],"comments":["Stave 1:","Stave 2:","Stave 3:"],"timing":[["W",null,"W","W","W","W",null,"W","W","W","W","W",null,"W","W","W","W","W",null,"W","W","W","W","W","W",null,"W","W","W","W","W",null,"W","W","W","W","W","W"],["W","W","W","W","W",null,"W","W","W","W","W","W",null,"W","W","W","W","W","W",null,"W","W","W","W","W","W"],["W",null,"W","W","W","W","W","W",null,"W","W","W","W","W","W",null,"W","W"]],"timingvisible":false,"tabcounter":19,"stave":2,"totalstaves":3,"instrument":"6guitar","selectedtuning":"6_standard","version":"13"}

Member for

1 month 2 weeks
About Me
wait a second this isnt aldi
Submitted by TomaccoDealer on Fri, 2020-12-04 19:53