Sound will begin in 5 seconds

Voicings for I-VI-ii in G Major

Chords
01234567891011121314151617181920212223
E
B
G
D
A
E
B
0 1 2 3 4 5 6 7 8 9 10 11 12 13 14 15 16 17 18 19 20 21 22 23
Song Science #1: How Pros Use 6 Chords to Write Hit Songs
(/) Slide Up  (\) Slide Down  (h) Hammer On  (p) Pull Off  (b) Bend (r) Release (v) Vibrato

Stave 1:

E|-----------2-----7-----------2-----
B|-----5-----5-----5-----4-----3-----
G|-----4-----4-----5-----5-----4-----
D|-----5-----5-----5-----4-----------
A|-----------------0-----5-----------
E|-----3-----0-----------------3-----

Stave 2:

E|-----7-----------8-----------2-----
B|-----7-----7-----8-----7-----2-----
G|-----7-----7-----9-----5-----4-----
D|-----5-----5-----7-----7-----5-----
A|-----------7-----------6-----------
E|-----------------------------0-----

Stave 3:

E|------------14------------12-----10-----
B|-----12-----12-----12-----12-----10-----
G|-----11-----12-----12-----11-----9------
D|-----12------------10-----10-----9------
A|-----10------------0-------------10-----
E|------------0---------------------------

Stave 4:

E|-----7-----8-----10-----12-----
B|-----7-----8-----10-----12-----
G|-----7-----9-----11-----12-----
D|-----5-----7-----9------10-----
A|-------------------------------
E|-------------------------------

http://www.guitartabcreator.com
Guitar Tab Creator is intended to store guitar tab created through the tool. It currently does not support in-line text editing. Any text you place in here will be lost. If you need to comment on your tab, please use the "Tab Notes" section located below.