Sound will begin in 5 seconds

Star Dust (First 4 Bars)

Chords
01234567891011121314151617181920212223
E
B
G
D
A
E
B
0 1 2 3 4 5 6 7 8 9 10 11 12 13 14 15 16 17 18 19 20 21 22 23
Song Science #1: How Pros Use 6 Chords to Write Hit Songs
(/) Slide Up  (\) Slide Down  (h) Hammer On  (p) Pull Off  (b) Bend (r) Release (v) Vibrato

Stave 1:

E|-------------------------
B|--10-----8-----10-----8--
G|--9------9-----7------7--
D|--10-----9-----9------9--
A|---------------8------8--
E|--8------8---------------

Stave 2:

E|--------8-----8--7--6--5--
B|--8-----7-----7--7--7--6--
G|--7-----7-----6--6--6--6--
D|--6-----6-----5--5--5--5--
A|--7-----7-----0--0--0--0--
E|--0-----0-----------------

Stave 3:

E|-----------
B|--5-----5--
G|--5-----4--
D|--3-----3--
A|--5--------
E|--------4--

Stave 4:

E|--0-----1-----3-----5--
B|--3-----3-----3-----5--
G|--2-----2-----2-----5--
D|--3-----3-----3-----3--
A|-----------------------
E|-----------------------

Stave 5:

E|--5--7--8--10--12--
B|--5-----6------10--
G|--5-----7------10--
D|--3-----7------0---
A|-------------------
E|-------------------

http://www.guitartabcreator.com
Guitar Tab Creator is intended to store guitar tab created through the tool. It currently does not support in-line text editing. Any text you place in here will be lost. If you need to comment on your tab, please use the "Tab Notes" section located below.