Sound will begin in 5 seconds

Over the Rainbow A Part

Chords
01234567891011121314151617181920212223
E
B
G
D
A
E
B
0 1 2 3 4 5 6 7 8 9 10 11 12 13 14 15 16 17 18 19 20 21 22 23
Song Science #1: How Pros Use 6 Chords to Write Hit Songs
(/) Slide Up  (\) Slide Down  (h) Hammer On  (p) Pull Off  (b) Bend (r) Release (v) Vibrato

Stave 1:

E|----------------7----------------------
B|--10-----13-----8-----8-----10-----10--
G|--9------12-----7-----9-----9------9---
D|--10-----10-----------8-----10-----10--
A|---------0------7-----------8------8---
E|--8-------------------8----------------

Stave 2:

E|---------------------8---------------
B|--8-----8-----10-----9-----10-----5--
G|--9-----9-----9------8-----9------6--
D|--9-----8-----10-----------10-----5--
A|--------------8------8---------------
E|--8-----8------------------8------5--

Stave 3:

E|--5--------------------
B|--6-----3-----5-----5--
G|--5-----4-----4-----4--
D|--------3-----5-----5--
A|--5-----------3-----3--
E|--------3--------------

http://www.guitartabcreator.com
Guitar Tab Creator is intended to store guitar tab created through the tool. It currently does not support in-line text editing. Any text you place in here will be lost. If you need to comment on your tab, please use the "Tab Notes" section located below.