Sound will begin in 5 seconds

Improv Ideas Jake June 1, 2016

01234567891011121314151617181920212223
E
B
G
D
A
E
B
0 1 2 3 4 5 6 7 8 9 10 11 12 13 14 15 16 17 18 19 20 21 22 23
Song Science #1: How Pros Use 6 Chords to Write Hit Songs
(/) Slide Up  (\) Slide Down  (h) Hammer On  (p) Pull Off  (b) Bend (r) Release (v) Vibrato

Stave 1:

E|--7--8--7------7--8--7-----7--8--7------------
B|-----------10-----------8------------------8--
G|------------------------------------10--9-----
D|----------------------------------------------
A|----------------------------------------------
E|----------------------------------------------

Stave 2:

E|--7--8--7--5--7--8--7-----7--8--7-----------
B|-----------------------8-----------6--5--8--
G|--------------------------------------------
D|--------------------------------------------
A|--------------------------------------------
E|--------------------------------------------

Stave 3:

E|--------------------------------------------
B|--------------------------------------------
G|--4--5--4--2--4--5--4-----4--5--4-----------
D|-----------------------5-----------3--2--5--
A|--------------------------------------------
E|--------------------------------------------

Stave 4:

E|-------------------------------------------------
B|-------------------------------------------------
G|-------------------------------------------------
D|--9--10--9--7--9--10--9------9--10--9------------
A|-------------------------10------------8--7--10--
E|-------------------------------------------------

Stave 5:

E|--------------------------------------------
B|--5--6--5-----5--6--5-----5--6--5-----------
G|-----------7-----------5-----------4-----5--
D|--------------------------------------7-----
A|--------------------------------------------
E|--------------------------------------------

Stave 6:

E|---------------------------------------------------
B|---------------------------------------------------
G|--9--10--9------9--10--9------9--10--9-------------
D|------------12------------10------------9------10--
A|-------------------------------------------12------
E|---------------------------------------------------

Stave 7:

E|--------------------------------------------
B|--------------------------------------------
G|--------------------------------------------
D|--2--3--2-----2--3--2-----2--3--2-----------
A|-----------5-----------3-----------2-----3--
E|--------------------------------------5-----

Stave 8:

E|---------------------------------------------
B|---------------------------------------------
G|---------------------------------------------
D|---------------------------------------------
A|--7--8--7------7--8--7-----7--8--7-----------
E|-----------10-----------8-----------7--5--8--

http://www.guitartabcreator.com
Guitar Tab Creator is intended to store guitar tab created through the tool. It currently does not support in-line text editing. Any text you place in here will be lost. If you need to comment on your tab, please use the "Tab Notes" section located below.