Sound will begin in 5 seconds

ii7-V9 Ideas

Chords
01234567891011121314151617181920212223
E
B
G
D
A
E
B
0 1 2 3 4 5 6 7 8 9 10 11 12 13 14 15 16 17 18 19 20 21 22 23
Song Science #1: How Pros Use 6 Chords to Write Hit Songs
(/) Slide Up  (\) Slide Down  (h) Hammer On  (p) Pull Off  (b) Bend (r) Release (v) Vibrato

Stave 1:

E|---5---------5---
B|---6---------6---
G|---5---------4---
D|-----------------
A|---5---------5---
E|-----------------

Stave 2:

E|-------------------
B|---10---------10---
G|---10---------10---
D|---10---------9----
A|-------------------
E|---10---------10---

Stave 3:

E|-----------5---8---5---------------
B|-------6---------------6-----------
G|---7-----------------------7---5---
D|-----------------------------------
A|-----------------------------------
E|-----------------------------------

Stave 4:

E|-------------------------------------------
B|-------------10---13---10------------------
G|--------10------------------10-------------
D|---12----------------------------12---10---
A|-------------------------------------------
E|-------------------------------------------

Stave 5:

E|-----------5---7---5---------------
B|-------6---------------6-----------
G|---7-----------------------7---4---
D|-----------------------------------
A|-----------------------------------
E|-----------------------------------

Stave 6:

E|------------------------------------------
B|-------------10---12---10-----------------
G|--------10------------------10------------
D|---12----------------------------12---9---
A|------------------------------------------
E|------------------------------------------

http://www.guitartabcreator.com
Guitar Tab Creator is intended to store guitar tab created through the tool. It currently does not support in-line text editing. Any text you place in here will be lost. If you need to comment on your tab, please use the "Tab Notes" section located below.