Sound will begin in 5 seconds

I-vi-ii-V in G Major (Moveable Shapes)

Chords
01234567891011121314151617181920212223
E
B
G
D
A
E
B
0 1 2 3 4 5 6 7 8 9 10 11 12 13 14 15 16 17 18 19 20 21 22 23
Song Science #1: How Pros Use 6 Chords to Write Hit Songs
(/) Slide Up  (\) Slide Down  (h) Hammer On  (p) Pull Off  (b) Bend (r) Release (v) Vibrato

Stave 1:

E|-----------------------------------------------
B|-----------------------------------------------
G|-----------------------------------4-----------
D|-----------4-----------------2--5-----5--2-----
A|-----2--5-----5--2--------3-----------------3--
E|--3-----------------3--------------------------

Stave 2:

E|-----------------------------------------------
B|-----------------------------------------------
G|-----------5-----------------------------------
D|-----4--7-----7--4-----------------4-----------
A|--5-----------------5--------2--5-----5--2-----
E|--------------------------3-----------------3--

Stave 3:

E|-----------2--------------------3--7--3--------
B|--------3-----3--------------5-----------5-----
G|-----4-----------4--------5-----------------5--
D|--5-----------------5--------------------------
A|-----------------------------------------------
E|-----------------------------------------------

Stave 4:

E|--------5--8--5--------------------2-----------
B|-----7-----------7--------------3-----3--------
G|--7-----------------7--------4-----------4-----
D|--------------------------5-----------------5--
A|-----------------------------------------------
E|-----------------------------------------------

Stave 5:

E|--------7--------------
B|--5-----8-----5-----5--
G|--4-----7-----5-----5--
D|--5-----------5-----4--
A|--------7-----------5--
E|--3-----------5--------

Stave 6:

E|--------------------------------7--10--7--------
B|--------3--5--3--------------8------------8-----
G|-----4-----------4--------9------------------9--
D|--5-----------------5---------------------------
A|------------------------------------------------
E|------------------------------------------------

Stave 7:

E|-----------------------------------------------
B|--------5--8--5--------------------------------
G|-----5-----------5-----------------5-----------
D|--7-----------------7--------4--7-----7--4-----
A|--------------------------5-----------------5--
E|-----------------------------------------------

http://www.guitartabcreator.com
Guitar Tab Creator is intended to store guitar tab created through the tool. It currently does not support in-line text editing. Any text you place in here will be lost. If you need to comment on your tab, please use the "Tab Notes" section located below.