Sound will begin in 5 seconds

I-vi-ii-V in C Major

Chords
01234567891011121314151617181920212223
E
B
G
D
A
E
B
0 1 2 3 4 5 6 7 8 9 10 11 12 13 14 15 16 17 18 19 20 21 22 23
Song Science #1: How Pros Use 6 Chords to Write Hit Songs
(/) Slide Up  (\) Slide Down  (h) Hammer On  (p) Pull Off  (b) Bend (r) Release (v) Vibrato

Stave 1:

E|-----------------------------------------------------
B|--------3--6--3--------------------3--6--3-----------
G|-----4-----------4--------------4-----------4--------
D|--5-----------------5--3-----6-----------------6--3--
A|-----------------------------------------------------
E|-----------------------------------------------------

Stave 2:

E|-----------------------------------------------------
B|-----------6--------------------------6--------------
G|-----4--7-----7--4-----4--------4--7-----7--4-----4--
D|--5-----------------5--------6-----------------6-----
A|-----------------------------------------------------
E|-----------------------------------------------------

Stave 3:

E|--------------5--------------------------4-----------
B|-----------6-----6--------------------6-----6--------
G|-----4--7-----------7--4--------4--7-----------7--4--
D|--5--------------------------6-----------------------
A|-----------------------------------------------------
E|-----------------------------------------------------

Stave 4:

E|--3--------7--
B|--3--------5--
G|--2--------5--
D|--2--------5--
A|--3--------0--
E|--------------

Stave 5:

E|-----------------------------
B|--5-----5-----5-----5-----5--
G|--4-----5-----5-----4-----4--
D|--5-----5-----3-----3-----5--
A|--3-----------5-----------3--
E|--------5-----------3--------

Stave 6:

E|--------7-----------5-----3--
B|--5-----5-----6-----5-----3--
G|--4-----5-----5-----4-----2--
D|--5-----5-----3-----3-----2--
A|--3-----0-----5-----------3--
E|-----------------------------

Stave 7:

E|-----------------------------
B|--5-----5-----6-----5-----3--
G|--4-----5-----5-----4-----4--
D|--5-----5-----3-----3-----2--
A|--3-----------5-----------3--
E|--------5-----------4--------

http://www.guitartabcreator.com
Guitar Tab Creator is intended to store guitar tab created through the tool. It currently does not support in-line text editing. Any text you place in here will be lost. If you need to comment on your tab, please use the "Tab Notes" section located below.