Sound will begin in 5 seconds

I-IV-V Progression in G Major

Chords
01234567891011121314151617181920212223
E
B
G
D
A
E
B
0 1 2 3 4 5 6 7 8 9 10 11 12 13 14 15 16 17 18 19 20 21 22 23
Song Science #1: How Pros Use 6 Chords to Write Hit Songs
(/) Slide Up  (\) Slide Down  (h) Hammer On  (p) Pull Off  (b) Bend (r) Release (v) Vibrato

Stave 1:

E|--------3-----5--------
B|--3-----5-----7-----3--
G|--4-----5-----7-----4--
D|--5-----------------5--
A|-----------------------
E|-----------------------

Stave 2:

E|--------------------------3--------
B|--------3--------------5-----5-----
G|-----4-----4--------5-----------5--
D|--5-----------5--------------------
A|-----------------------------------
E|-----------------------------------

Stave 3:

E|--------5--------------------------
B|-----7-----7--------------3--------
G|--7-----------7--------4-----4-----
D|--------------------5-----------5--
A|-----------------------------------
E|-----------------------------------

Stave 4:

E|--------------------------
B|--------------------------
G|--------------------------
D|-----------------2--4--5--
A|--------2--3--5-----------
E|--3--5--------------------

Stave 5:

E|-----------------2--3--
B|-----------3--5--------
G|--2--4--5--------------
D|-----------------------
A|-----------------------
E|-----------------------

Stave 6:

E|--------------------
B|--------------------
G|--------------------
D|--------------------
A|--------2--------2--
E|--3--5-----3--5-----

Stave 7:

E|--------------------------
B|--------------------------
G|--------------------------
D|-----------2-----------2--
A|--2--3--5-----2--3--5-----
E|--------------------------

Stave 8:

E|--------------------------
B|--------------------------
G|-----------2-----------2--
D|--2--4--5-----2--4--5-----
A|--------------------------
E|--------------------------

Stave 9:

E|--------------------------
B|-----------3-----------3--
G|--2--4--5-----2--4--5-----
D|--------------------------
A|--------------------------
E|--------------------------

Stave 10:

E|--------2--3--------2--3--
B|--3--5--------3--5--------
G|--------------------------
D|--------------------------
A|--------------------------
E|--------------------------

http://www.guitartabcreator.com
Guitar Tab Creator is intended to store guitar tab created through the tool. It currently does not support in-line text editing. Any text you place in here will be lost. If you need to comment on your tab, please use the "Tab Notes" section located below.