Sound will begin in 5 seconds

Don's Song Chords

Chords
01234567891011121314151617181920212223
E
B
G
D
A
E
B
0 1 2 3 4 5 6 7 8 9 10 11 12 13 14 15 16 17 18 19 20 21 22 23
Song Science #1: How Pros Use 6 Chords to Write Hit Songs
(/) Slide Up  (\) Slide Down  (h) Hammer On  (p) Pull Off  (b) Bend (r) Release (v) Vibrato

Stave 1:

E|-----------------------
B|--------------5-----5--
G|--5-----4-----4-----3--
D|--3-----3-----5-----5--
A|--5-----------3-----4--
E|--------3--------------

Stave 2:

E|-----------
B|--6-----6--
G|--6-----5--
D|--4-----4--
A|--6--------
E|--------4--

Stave 3:

E|---------------------------------------
B|--13-----10-----12-----9-----11-----8--
G|--10-----9------9------8-----8------7--
D|--12-----8------11-----7-----10-----6--
A|---------------------------------------
E|---------8-------------7------------6--

Stave 4:

E|----------------------------0--
B|--10-----4-----8-----10-----2--
G|--7------5-----5-----9------3--
D|--9------4-----7-----10-----2--
A|-------------------------------
E|---------4------------------2--

Stave 5:

E|------------------------
B|--5--------8--------10--
G|--6--6-----9--9-----11--
D|--4--------7--------9---
A|--5--------8--------10--
E|------------------------

http://www.guitartabcreator.com
Guitar Tab Creator is intended to store guitar tab created through the tool. It currently does not support in-line text editing. Any text you place in here will be lost. If you need to comment on your tab, please use the "Tab Notes" section located below.