Sound will begin in 5 seconds

Diatonic Chords in F and G Major

Chords
01234567891011121314151617181920212223
E
B
G
D
A
E
B
0 1 2 3 4 5 6 7 8 9 10 11 12 13 14 15 16 17 18 19 20 21 22 23
Song Science #1: How Pros Use 6 Chords to Write Hit Songs
(/) Slide Up  (\) Slide Down  (h) Hammer On  (p) Pull Off  (b) Bend (r) Release (v) Vibrato

Stave 1:

E|---------------------------------5-----6-----8---
B|--1-----3-----5-----6-----8------6-----8-----10--
G|--2-----3-----5-----7-----9------7-----9-----10--
D|--3-----5-----7-----8-----10---------------------
A|-------------------------------------------------
E|-------------------------------------------------

Stave 2:

E|--8------6---------------------------------
B|--10-----8-----8------6-----5-----3-----1--
G|--10-----9-----9------7-----5-----3-----2--
D|---------------10-----8-----7-----5-----3--
A|-------------------------------------------
E|-------------------------------------------

Stave 3:

E|---------------------------5-----7-----8------10--
B|--3-----5-----7-----8------7-----8-----10-----12--
G|--4-----5-----7-----9------7-----9-----11-----12--
D|--5-----7-----9-----10----------------------------
A|--------------------------------------------------
E|--------------------------------------------------

Stave 4:

E|--10-----8------7-----5---------------------------
B|--12-----10-----8-----7-----8------7-----5-----3--
G|--12-----11-----9-----7-----9------7-----5-----4--
D|----------------------------10-----9-----7-----5--
A|--------------------------------------------------
E|--------------------------------------------------

http://www.guitartabcreator.com
Guitar Tab Creator is intended to store guitar tab created through the tool. It currently does not support in-line text editing. Any text you place in here will be lost. If you need to comment on your tab, please use the "Tab Notes" section located below.