Sound will begin in 5 seconds

C Major with Five Visualisations

01234567891011121314151617181920212223
E
B
G
D
A
E
B
0 1 2 3 4 5 6 7 8 9 10 11 12 13 14 15 16 17 18 19 20 21 22 23
Song Science #1: How Pros Use 6 Chords to Write Hit Songs
(/) Slide Up  (\) Slide Down  (h) Hammer On  (p) Pull Off  (b) Bend (r) Release (v) Vibrato

Stave 1:

E|-----------------------------------3--5--
B|--------------------------3--5--6--------
G|-----------------2--4--5-----------------
D|--------2--3--5--------------------------
A|--3--5-----------------------------------
E|-----------------------------------------

Stave 2:

E|--------------------------------------5--7--8--
B|-----------------------------5--6--8-----------
G|--------------------4--5--7--------------------
D|-----------3--5--7-----------------------------
A|--3--5--7--------------------------------------
E|-----------------------------------------------

Stave 3:

E|--------------------------------------5--7--8--
B|-----------------------------5--6--8-----------
G|--------------------4--5--7--------------------
D|--------------5--7-----------------------------
A|-----5--7--8-----------------------------------
E|--8--------------------------------------------

Stave 4:

E|----------------------------------------------7--8--
B|---------------------------------------8--10--------
G|-----------------------------7--9--10---------------
D|-------------------7--9--10-------------------------
A|---------7--8--10-----------------------------------
E|--8--10---------------------------------------------

Stave 5:

E|----------------------------------------------------------
B|----------------------------------------------10--12--13--
G|-----------------------------------9--10--12--------------
D|------------------------9--10--12-------------------------
A|-------------8--10--12------------------------------------
E|--8--10--12-----------------------------------------------

http://www.guitartabcreator.com
Guitar Tab Creator is intended to store guitar tab created through the tool. It currently does not support in-line text editing. Any text you place in here will be lost. If you need to comment on your tab, please use the "Tab Notes" section located below.