Sound will begin in 5 seconds

Am, A7, and C Major Practice

01234567891011121314151617181920212223
E
B
G
D
A
E
B
0 1 2 3 4 5 6 7 8 9 10 11 12 13 14 15 16 17 18 19 20 21 22 23
Song Science #1: How Pros Use 6 Chords to Write Hit Songs
(/) Slide Up  (\) Slide Down  (h) Hammer On  (p) Pull Off  (b) Bend (r) Release (v) Vibrato

Stave 1:

E|--8------------------------------
B|-----10--8-----------8-----------
G|------------9--8--7-----7--5-----
D|------------------------------7--
A|---------------------------------
E|---------------------------------

Stave 2:

E|--9------------------------------
B|-----10--8-----------8-----------
G|------------9--8--7-----7--6-----
D|------------------------------7--
A|---------------------------------
E|---------------------------------

Stave 3:

E|-----------------------------
B|----------------------8--12--
G|-------------------9---------
D|------------9--10------------
A|-----7--10-------------------
E|--8--------------------------

Stave 4:

E|----------------------------------------------------------
B|----------------------------------------------10--12--13--
G|-----------------------------------9--10--12--------------
D|------------------------9--10--12-------------------------
A|-------------8--10--12------------------------------------
E|--8--10--12-----------------------------------------------

Stave 5:

E|----------------------------------------------7--8--
B|---------------------------------------8--10--------
G|-----------------------------7--9--10---------------
D|-------------------7--9--10-------------------------
A|---------7--8--10-----------------------------------
E|--8--10---------------------------------------------

http://www.guitartabcreator.com
Guitar Tab Creator is intended to store guitar tab created through the tool. It currently does not support in-line text editing. Any text you place in here will be lost. If you need to comment on your tab, please use the "Tab Notes" section located below.