Sound will begin in 5 seconds

MADRUGADA

Chords
01234567891011121314151617181920212223
E
B
G
D
A
E
B
0 1 2 3 4 5 6 7 8 9 10 11 12 13 14 15 16 17 18 19 20 21 22 23
Song Science #1: How Pros Use 6 Chords to Write Hit Songs
(/) Slide Up  (\) Slide Down  (h) Hammer On  (p) Pull Off  (b) Bend (r) Release (v) Vibrato

Stave 1:

E|----7----2----3----0--------------5-----------------------------7----2----3----
B|---------0---------0----0----1---------3----4----7-------------------0---------
G|------------------------2---------5----2--------------3----4-------------------
D|------------------------2---------4----4--------------2------------------------
A|------------------------0--------------2---------0-----------------------------
E|---------0---------4----------------------------------3---------2----0---------

Stave 2:

E|----12----7----8----5----3---------2----0---------10----6----7----3--------------
B|----9-----------------------------------0-------------------------3----4----5----
G|----9-----9---------5----3----4----2--------------------0---------0----0---------
D|----------7---------4----2--------------4----5----0------------------------------
A|----------0------------------------2------------------------------2----3---------
E|----0-----------------------------------0----------------------------------------

Stave 3:

E|----8----4----5----2-------------------10---------15---------------12--------------
B|----5--------------1----5--------------7-----8----------10---------10----7---------
G|----5----5---------2----3----4----7---------------0-----8-----9----------5---------
D|---------0---------0--------------0--------------------------------10----6----7----
A|----0--------------------------------------------------------------0-----5---------
E|------------------------3--------------7----------------8--------------------------

Stave 4:

E|----10----8---------7----10---------15----------12--------------7----3---------
B|----7-----7---------5----7-----8----------10----10----6----7----7----3---------
G|----7---------------0---------------0-----8-----------5---------5----3----4----
D|----0-----7-------------------------------------10----0---------0--------------
A|----------6----7--------------------------------0------------------------------
E|--------------------0----7----------------8--------------------------3---------

Stave 5:

E|----7----2----3----0--------------5-----------------------------7----2----3----
B|---------0---------0----0----1---------3----4----7-------------------0---------
G|------------------------2---------5----2--------------3----4-------------------
D|------------------------2---------4----4--------------2------------------------
A|------------------------0--------------2---------0-----------------------------
E|----2----0---------4----------------------------------3---------2----0---------

Stave 6:

E|----12----7----8----5----3---------2----0---------12----
B|----9-----------------------------------0---------------
G|----9-----9---------5----3----4----2--------------------
D|----------7---------4----2--------------4----5----------
A|----------0------------------------2--------------------
E|----0-----------------------------------0---------------

http://www.guitartabcreator.com
Guitar Tab Creator is intended to store guitar tab created through the tool. It currently does not support in-line text editing. Any text you place in here will be lost. If you need to comment on your tab, please use the "Tab Notes" section located below.